Scorpions - Send Me An Angel Chords & Tabs

 

Send Me An Angel Chords & Tabs

Scorpions Chords & Tabs

Version: 1 Type: Tab 0 ratings
1 star 2 stars 3 stars 4 stars 5 stars
comments

Send Me An Angel Tab

   
Note!
Tuning: E Ab Db Gb b E

Pattern1
Intro and 1st verse
--------------------------------------------
--4----4----2----2-----4----4-------2-------
---4----4----2----2-----4----4----2---2-----X4 then lyrics with same
-2--2----2----4----4--2--2----2--4-4-4-4----pattern X4
------3----5----2----------3----5-----------
--------------------------------------------
[ Tab from: http://www.guitartabs.cc/tabs/s/scorpions/send_me_an_angel_tab.html ]
Pattern2
Here I am...
(this pattern may not be correct but it fits)
--------------------------------------------
-----6--------4--------4--------------------
---6--6-6---4--4-4---4--4-4---2----4--------X2
--7-7--7---6-6--6---6-6--6---4-4--6-6-------
-9--------7--------4--------5----7----------
--------------------------------------------

Pattern3
Same pattern as intro but two steps up
--------------------------------------------
--6----6----4----4-----6----6-------4-------
---6----6----4----4-----6----6----4--4-4----X4
-4--4----4----6----6--4--4----4--6-6--6-----
------5----7----4----------5----7-----------
--------------------------------------------

Pattern4
Same pattern as by the first "Here I am" but up two steps
--------------------------------------------
------8--------6--------6-------------------
----8--8-8---6--6-6---6--6-6---5----6-------X2
---9-9--9---8-8--8---8-8--8---6-6--8-8------
-11--------9--------6--------7----9---------
--------------------------------------------

Pattern1 X3 With solo
Pattern1 X4 With Verse
Pattern2 X8 fade out...
Comments