Scorpions - Rock You Like A Hurricane Chords & Tabs

 

Rock You Like A Hurricane Chords & Tabs

Scorpions Chords & Tabs

Version: 4 Type: Tab 0 ratings
1 star 2 stars 3 stars 4 stars 5 stars
comments

Rock You Like A Hurricane Tab

Intro and chorus
e--------------------------
B--------------------------
G-9-9-9------------5--7-7--
D-9-9-9--5-5--7-7--5--7-7--
A-7-7-7--5-5--7-7--3--5-5--
E--------3-3--5-5----------
[ Tab from: http://www.guitartabs.cc/tabs/s/scorpions/rock_you_like_a_hurricane_tab_ver_4.html ]
Verse
Play () on 4th time instead of last 4 fives
e-----------------------------------------------------------------
B-----------------------------------------------------------------
G-----------------------------------------------------------------
D-----------------------------------------------------------(5)---
A-3-3-3-7-7-7-7-3-3-3-7-7-5-5-5-3-3-3-7-7-7-7-3-3-3-5-5-5-5-(3)---
E-----------------------------------------------------------------
Comments