Scorpions - Rock You Like A Hurricane Chords & Tabs

 

Rock You Like A Hurricane Chords & Tabs

Scorpions Chords & Tabs

Version: 2 Type: Tab 2 ratings
1 star 2 stars 3 stars 4 stars 5 stars
comments

Rock You Like A Hurricane Tab

   
#----------------------------------PLEASE NOTE---------------------------------#
#This file is the author's own work and represents their interpretation of the #
#song. You may only use this file for private study, scholarship, or research. #
#------------------------------------------------------------------------------#

Rock You Like A Hurricane
Performed by The Scorpions on the album Love At First Sting
Tabbed by Brandon Williams
bwillia1074@cs.com

The other post was a little off.  This is the CORRECT version.  


I learned it from the live version on the cd "Big City Nights" so there might be some minor differences.  Does anyone have any of the guitar solos?!  If you do, contact me via e-mail!

Riff 1:
e|-------------------------|
b|-------------------------|
g|-9-9-9------------5--7-7-|
D|-9-9-9--5-5--7-7--5--7-7-|
A|-7-7-7--5-5--7-7--3--5-5-|
E|--------3-3--5-5---------|
[ Tab from: http://www.guitartabs.cc/tabs/s/scorpions/rock_you_like_a_hurricane_tab_ver_2.html ]
Riff 2:
e|-----------------------------------------------------------------|
b|-----------------------------------------------------------------|
g|-5-5-5--9-9-9--5-5-5--9-9-9--7-7--5-5-5--9-9-9--5-5-5--7-7-7-7-7-|
D|-5-5-5--9-9-9--5-5-5--9-9-9--7-7--5-5-5--9-9-9--5-5-5--7-7-7-7-7-|
A|-3-3-3--7-7-7--3-3-3--7-7-7--5-5--3-3-3--7-7-7--3-3-3--5-5-5-5-5-|
E|-----------------------------------------------------------------|
pm.................................................................  

e|-----------------------------------------------------------------|
b|-----------------------------------------------------------------|
g|-5-5-5--9-9-9--5-5-5--9-9-9--7-7--5-5-5--9-9-9--5-5-5--7-7-7-7-7-|
D|-5-5-5--9-9-9--5-5-5--9-9-9--7-7--5-5-5--9-9-9--5-5-5--7-7-7-7-7-|
A|-3-3-3--7-7-7--3-3-3--7-7-7--5-5--3-3-3--7-7-7--3-3-3--5-5-5-5-5-|
E|-----------------------------------------------------------------|
pm..............................................................

Riff 3:
e|-------------------------------------------|
b|-------------------------------------------|
g|-5----9----5----9--7-7----5----9----5----7-|
D|-5----9----5----9--7-7----5----9----5----7-|
A|-3----7----3----7--5-5----3----7----3----5-|
E|-------------------------------------------|

Riff 4:
e|-------|
b|-------|
g|-9-9-9-|
D|-9-9-9-|
A|-7-7-7-|
E|-------|
Comments