Scorpions - Rock You Like A Hurricane Chords & Tabs

 

Rock You Like A Hurricane Chords & Tabs

Scorpions Chords & Tabs

Version: 10 Type: Tab 0 ratings
1 star 2 stars 3 stars 4 stars 5 stars
comments

Rock You Like A Hurricane Tab

[begin tab]

Standard Tuning

     riff #1		intro solo
|----------------|-00-0-0-------------------------| ill put the
|----------------|-55-1212-11h12p11p9-------------| solo in parts
|-999-------5-77-|--------------------12p11p9-----| to make it
|-999-55-77-5-77-|----------------------------12p0| easier for
|-777-55-77-3-55-|--------------------------------| you
|-----33-55------|--------------------------------|
	     screw with the 5's and 12's im not typing it out

|----------------15br-14h15p14p12----------15-------17b-15-17-15|
|-------15----------------------15-15h17----15b17---------------|
|-14b16----14b16------------------------------------------------|
|---------------------------------------------------------------|
|---------------------------------------------------------------|
|---------------------------------------------------------------|

|-20b-20b-20b-20b-17-20-19-17-15-19-17-15-14-17-15-14|-12------|
|----------------------------------------------------|---15b17-|
|----------------------------------------------------|---------|
|----------------------------------------------------|---------|
|----------------------------------------------------|---------|
|----------------------------------------------------|---------|
						      repeat 6x
solo out (the part i love)
|12-15-12---------------------------------------|
|---------15-12---------------------------------|
|---------------15-14-12------------------------|
|------------------------14-12------------------|
|------------------------------14-13-12---------|
|---------------------------------------15-12/10|
 looks hard but actually its really easy once your
 fingers get the pattern down

 this part is muted ()'s are optional, i like to use them when
 the big drum clashes
|------------------------------------------------------|
|------------------------------------------------------|
|------------------------------------------------------|
|------------------------------------------------------|
|-333-7777-(0)-333-77-55-(0)-333-7777-(0)-333-5555-(0)-|
|------------------------------------------------------|

 this part isnt played in the begining but it is
 throughout the rest of the song
|----------------------|
|----------------------|
|-5-99-5-9-7--5-99-5-7-|
|-5-99-5-9-7--5-99-5-7-|
|-3-77-3-7-5--3-77-3-5-|
|----------------------|

after this you go back to riff #1

*main solo*

|-13-|-------------|------|----------------|
|-16-|-------------|------|-13h16p13h16----|
|----|-15br(15)p13-|-15bF-|-------------15-|
|----|-------------|------|----------------|
|----|-------------|------|----------------|
|----|-------------|------|----------------|
	repeat 2x             repeat 3x
[ Tab from: http://www.guitartabs.cc/tabs/s/scorpions/rock_you_like_a_hurricane_tab_ver_10.html ]
|------------------------------|
|-13h16p13h16-----13h16p13-----|
|-------------15b----------15/-|
|------------------------------|
|------------------------------|
|------------------------------|

|---------------------------------------------------1515-18bF-|
|-----------------------------------------1515-1717-----------|
|----------------1212-1414-1616-1414-1616---------------------|
|------1212-1414----------------------------------------------|
|-1414--------------------------------------------------------|
|-------------------------------------------------------------|

-------------------------|----------------|------------|
-------------------------|-15br(15)p13----|------------|
-17br--15-13-15br p13----|-15br(15)p13----|-0-2-4-5-7b-|
----------------------15-|-------------15-|------------|
-------------------------|----------------|------------|
-------------------------|----------------|------------|
                              repeat 3x

----------------------------------------------------------------|
---5-8p5---7-10p7----9-12p9----12-15p12----14-17p14----16-19p16-|
-/7-----/9-------/11-------/14---------/16---------/18----------|
----------------------------------------------------------------|
----------------------------------------------------------------|
----------------------------------------------------------------|

-------------------------------22----------------------------------|
-----17-20p17----19-22p19-22bf----22bf-22bf-r----------------------|
-/19---------/21------------------------------------------------19-|
-------------------------------------------------------19-21-22----|
----------------------------------------------19-21-22-------------|
-------------------------------------------------------------------|

    3x
--22bF r-|----22-20-19----20p19----19-20-19h20p19-------|
---------|-21----------22-------22----------------22-20-|
---------|----------------------------------------------|
---------|----------------------------------------------|
---------|----------------------------------------------|
---------|----------------------------------------------|

-------------------------------------------------------------|
-------------------------------------------------------------|
-1717p15--------15-17p15-17p15-------15-17-17p151715---------|
--------17-1517----------------17-15-----------------1717p15-|
-------------------------------------------------------------|
-------------------------------------------------------------|

--------------------------------|
-----------------------------7b-|
---0-2-2p0--2p0---0-2-4-5-7--7b-|   end solo
-2--------------2---------------|
--------------------------------|
--------------------------------|


when it goes back into the riff its like this

|--------------------------|
|--------------------------|
|-99--5-99-5-9-7--5-99-5-7-|
|-99--5-99-5-9-7--5-99-5-7-|
|-77--3-77-3-7-5--3-77-3-5-|
|--------------------------|

[end tab]
Comments