Scorpions - Remember The Good Times Chords & Tabs

 

Remember The Good Times Chords & Tabs

Scorpions Chords & Tabs

Version: 1 Type: Tab 0 ratings
1 star 2 stars 3 stars 4 stars 5 stars
comments

Remember The Good Times Tab

SCORPIONS
Unbreakable
Remember the good times.  tab


Intro guitare 1.

E----------------------------------------I
B----------------------------------------I
G--10-----7-----3----5-------------------I
D--10-----7-----3----555555555555555-----I
A--8------5-----1----333333333333333-----I
E----------------------------------------I

Riff 1    guitare 2.

Et la guitare 1 continue a jouer l'intro une fois.
E-----------------------------I
B-----------------------------I
G--10-10----7--------7--------I
D--10-10--8-7---8-8--7--------I
A--8--8---5-5---5-5--5--------I
E-----------------------------I
Jouer ce riff trois fois.

Puis...
Riff 2
E------------------------------I
B------------------------------I
G------------------------------I
D--5--7—5--5-7--5--5-7--5—5-7--I
A--3--3—3--3-3--3--3-3--3—3-3--I
E------------------------------I
[ Tab from: http://www.guitartabs.cc/tabs/s/scorpions/remember_the_good_times_tab.html ]
Riff 3
We were twisting Chubby Checker style...
E---------------------------------------------------I
B---------------------------------------------------I
G---------------------------------------------------I
D-10101010101010-7777777777-33333333333-555555555---I
A-8-8-8-8-8-8-8--5555555555-11111111111-333333333---I
E---------------------------------------------------I
Pm__________________________________________________

Jouer ce riff deux fois.

*répéter le riff 1 suivis du riff 2.

*répéter le riff 3.

*répéter encore le riff 1 suivis du riff 2.

Riff 4

Back in the cold war...
E-----------------------------------------------------------I
B-----------------------------------------------------------I
G-----7---3---5-------7---33333333333333333-55555555555555--I
D-7---7---3---5---7---7---33333333333333333-55555555555555--I
A-7---5---1---3---7---5---11111111111111111-33333333333333--I
E-5---------------5-----------------------------------------I


*Pour la rythmique répéter le riff 1.
Comments