Scorpions - Priscilla Chords & Tabs

 

Priscilla Chords & Tabs

Scorpions Chords & Tabs

Version: 1 Type: Tab 0 ratings
1 star 2 stars 3 stars 4 stars 5 stars
comments

Priscilla Tab

Priscilla                         Schenke/Meine
Scorpions
Eye to eye

Mirsha   mirsha_joker@hotmail.com


Intro
e---------------------------------------------------------------
B---------------------------------------------------------------
G----7-9--------9-7-----------9-7----7-9-----9-7-----------5----
D----7-9--------9-7----5--7---9-7----7-9-----9-7----5--7---5----
A----5-7--------7-5----5--7---7-5----5-7-----7-5----5--7---3----
E----------------------3--5-------------------------3--5--------
[ Tab from: http://www.guitartabs.cc/tabs/s/scorpions/priscilla_tab.html ]
Background guitar in the intro and in the verses
e---------------------------------------------------------------
B---------------------------------------------------------------
G---------------------------------------------------------------
D-----9-9-9-9-9-9-9-9-9-9-9-9-9-9-9-9-9-9-9-9-9-9-9-9-9-9-9-9---
A-----7-7-7-7-7-7-7-7-7-7-7-7-7-7-7-7-7-7-7-7-7-7-7-7-7-7-7-7---
E---------------------------------------------------------------


------------------------------------------------
-----5-------4----------------------------------
-----5-------4----------------------------------
-----5-------4----------------------------------
-----3-------2----------------------------------
------------------------------------------------
    i'm ready to attack......................


---------------------
------------4--4-----
------------4--4-----
------------4--4-----
------------2--2-----
---------------------
kill ya..Priscilla


----------------------------------------------------
----------------------------------------------------
--x--x-x-x------------------------------------------
--x--x-x-x------------------------------------------
--x--x-x-x---7-7-7-7-7----7-7-7-7-7----7-7-7-7-7----
----------------------------------------------------
i can't do it  i can't do it  i can't do it all
Comments