Scorpions - Now Chords & Tabs

 

Now Chords & Tabs

Scorpions Chords & Tabs

Version: 1 Type: Tab 0 ratings
1 star 2 stars 3 stars 4 stars 5 stars
comments

Now Tab

Now!                                             Schenker/Meine/Rarebell
Blackout
Scorpions


Standard tuning

----------------------------------------------------------
----------------------------------------------------------
----5---x-x-x-x-5---5---x-x-x-x-5---5---x-x-x-x--5-5-5----
----5---x-x-x-x-5---5---x-x-x-x-5---5---x-x-x-x--5-5-5----
----3p0-x-x-x-x-3p0-3p0-x-x-x-x-3p0-3p0-x-x-x-x--3-3-3----
----------------------------------------------------------
This fig is played in the intro, verse and solo just play it like 188 times
[ Tab from: http://www.guitartabs.cc/tabs/s/scorpions/now_tab.html ]
--------------------------------------
--------------------------------------
--------------------------------------
------5-------------------------------
------5-------------------------------
------3-------------------------------
It's gonna be wild


SOLO

------------------------------------------
------------------------------------------
------------------------------------------
------5-----------------------------------
------5dive w/trem. bar-------------------
------3-----------------------------------
at the end of the solo


------------------------------
------------------------------
---5------------7-----9-------
---5----5-------7-----9-------
---3----5-------5-----7-------
--------3---------------------
Gettin' out of control........


A very easy song
mirsha_joker@hotmail.com           metal-maniaco@the-scorpions.com
Mirsha
Comments