Scorpions - Night Lights Chords & Tabs

 

Scorpions Chords & Tabs

Version: 1 Type: Tab 0 ratings
1 star 2 stars 3 stars 4 stars 5 stars
comments

Night Lights Tab

   
Scorpions
1975-In Trance
Night Lights
Transcribed by Daniel Ocon



E---b---------b-----------------h-sl-------------------------------------- 
B---9---------9----------------7-9--11----------h-h----------------------- 
G-------10--------10---11-8---------------10-8-6-8-10---8----------------- 
D---------------------------------------------------------7--7-6--8-10---- 
A-------------------------------------------------------------------------
E-------------------------------------------------------------------------


E-------------------------------------------------------------------------
B----b-------------p-----------p-----------sl----------------------------- 
G---10---10---10-10-8-8----8-10-8-8----6--6--13--------------------sl----- 
D-----------------------------------------------10-----------sl---7--9---- 
A------------------------------------------------------sl---7--9---------- 
E-----------------------------------------------------0--7---------------- 

                                                                     b
E-------------------------------------------------------13----16----20---- 
B----------------------------------------------------------14------------- 
G-------------------------------------------------------------------------
D----sl------sl--------sl------sl--sl------sl--sl------------------------- 
A---9--11--11--13----11--13--11--13--10---8--10--6------------------------ 
E-------------------------------------------------------------------------

                            h  p             h  p          sl
E---19-18-19----18-16-18--16-18-16--14-16--14-16-14--13--13--14-----------
B-------------------------------------------------------------------------
G-------------------------------------------------------------------------
D-------------------------------------------------------------------------
A-------------------------------------------------------------------------
E-------------------------------------------------------------------------

                        vib                               b
E-----------------9-11--13-----------16------------------14--------------- 
B------------------------------16-14--------------14-16------------------- 
G----------------------------------------16----16------------------------- 
D-------------------------------------------------------------------------
A---13-13-13-13----------------------------------------------------------- 
E-------------------------------------------------------------------------

                    b
E--------------14--14---13-14-13-11-------sl------------------------------ 
B-----sl----16----------------------14--14--16--16-14----------sl--------- 
G---11--15--------------------------------------------15-15--13--7-------- 
D-------------------------------------------------------------------------
A-------------------------------------------------------------------------
E-------------------------------------------------------------------------


E----------------b---vib------------------------b------h------------------ 
B-----sl----17--18---18------17--16--14--17----17----14-16---------------- 
G---16--18---------------------------------------------------------------- 
D-------------------------------------------------------------------------
A-------------------------------------------------------------------------
E-------------------------------------------------------------------------


E-------b---------b^b^--------b--------------h-sl------------------------- 
B---9-9-9--------13-----13----9-------------7-9--11----------h-h---------- 
G----------10--------------------10-11-8---------------10-8-6-8-10-------- 
D-------------------------------------------------------------------------
A-------------------------------------------------------------------------
E-------------------------------------------------------------------------
[ Tab from: http://www.guitartabs.cc/tabs/s/scorpions/night_lights_tab.html ]
     rake             b
E---------12---------12-------------sl------------------------------------ 
B------10-----10-10--------9--11--11--13------sl-----------h--p----------- 
G---10---------------------------------------1--11-10-10--8-10-8---------- 
D----------------------------------------------------------------11-11---- 
A-------------------------------------------------------------------------
E-------------------------------------------------------------------------


E--------------------------------------------------sl------------h--p----- 
B-------------------------------------------------4--14-13-13--11-13-11--- 
G-----------h--p---------------------------------------------------------- 
D---10-10--8-10-8-------------h-p----------------------------------------- 
A-----------------11-11-9-9--8-9-8---------------------------------------- 
E----------------------------------11-11-9-9-8---------------------------- 


E-------------------------------------------------------------------------
B------------------h--p--------------------------------------------------- 
G---13-13-12-12--10-12-10----------------h--p----------------------sl----- 
D-------------------------13-13-11-11--10-11-10-------------------4--14---
A-----------------------------------------------13-13-11-11-10------------ 
E-------------------------------------------------------------------------


E-------------------------------------------------------------------------
B-------------------------------------------------------------------------
G------------h--p--------------------------------------------------------- 
D---13-13--11-13-11----------------h--p----------------------------------- 
A-------------------14-14-13-13--11-13-11----------------h--p------------- 
E-----------------------------------------14-14-12-12--11-12-11-9-9-7-7-6-


E----sl-----------h--p---------------------------------------------------- 
B---3--13-11-11--9-11-9---------------h--p-------------------------------- 
G-----------------------12-12-10-10--8-10-8---------------h--p------------ 
D-------------------------------------------11-11-10-10--8-10-8----------- 
A-------------------------------------------------------------------------
E-------------------------------------------------------------------------


E-------------------------------------------------------------------------
B-------------------------------------------------------------------------
G-------------------------------------------------------------------------
D-------------------------------------------------------------------------
A---11-11-10-10----sl------sl-------------------------------7----sl------- 
E-----------------9--13---9--13----11--9--7---6--4--7---6-------9--11----- 


E-------------------------------------------------------------------------
B-------------------------------------------------------------------------
G-------------------------------------------------------------------------
D-------------------------------------------------------------------------
A----sl-------sl------sl------------------------------7---------sl-------- 
E---9--11---11--13---9--13---11--9--7---6--4--7---6-------11---9--11------ 

Start to fade here


E-------------------------------------------------------------------------
B---------4---b--b----4-------------------------------6---b--b------------ 
G---b--3------6--6------6-3--b----b--3--b--3----b--5------8--8------------ 
D---6------------------------6----6-----6-------7------------------------- 
A-------------------------------------------------------------------------
E-------------------------------------------------------------------------

             b
E---------6--8------------------------------------------------------------
B---6-8-9-----------------------------------------------------------------
G-------------------------------------------------------------------------
D-------------------------------------------------------------------------
A-------------------------------------------------------------------------
E-------------------------------------------------------------------------
Comments