Scorpions - New Generation Chords & Tabs

 

New Generation Chords & Tabs

Scorpions Chords & Tabs

Version: 1 Type: Tab 0 ratings
1 star 2 stars 3 stars 4 stars 5 stars
comments

New Generation Tab

   
Artist: Scorpions
Song: New Generation INTRO
Album: Unbreakable (2004)

This a greatest Scorpions song(i think).
This is my first tab!

INTRO:

1st Guitar play that(4X):
RIFF A
[ Tab from: http://www.guitartabs.cc/tabs/s/scorpions/new_generation_tab.html ]
e--------------------5~-3-----------------3~-5------------------------------|
b--------------------5~-3-----------------3~-5------------------------------|
g---------------------------------------------------------------------------|
d---5-5-x-5-x-5-5---------5-5-x-5-x-5-5-------------------------------------|
a---5-5-x-5-x-5-5---------5-5-x-5-x-5-5-------------------------------------|
e---3-3-x-3-x-3-3---------3-3-x-3-x-3-3-------------------------------------|


2nd Guitar play(4X):
RIFF B
When the first guitar play the Riff A, the second play this:

e---------------------------------------------------------------------------|
b---------------------------------------------------------------------------|
g---------------------------------------------------------------------------|
d---5-5-x-5-x-5-5---------5-5-x-5-x-5-5---5~-4------------------------------|
a---5-5-x-5-x-5-5---------5-5-x-5-x-5-5--------55---------------------------|
e---3-3-x-3-x-3-3---------3-3-x-3-x-3-3-------------------------------------|
Comments