Scorpions - My City My Town Chords & Tabs

 

My City My Town Chords & Tabs

Scorpions Chords & Tabs

Version: 2 Type: Tab 0 ratings
1 star 2 stars 3 stars 4 stars 5 stars
comments

My City My Town Tab

SCORPIONS
Unbreakable
My city my town  tab

Intro :

E-3---3-1-1--1----------------|-3---3-1-1--1-----0----0------I
B-3---3-1-1--1-3-3--3-3-3-3---|-3---3-1-1--1-3-3---3----3----I
G-0------------2-2--0-2-0-2---|-0------------2-2-------------I
D-----------------------------|------------------------------I
A-----------------------------|----------------------3----2--I
E-3---------------------------|-3----------------------------I

Riff 1 :

E---------------------------------------------------I
B--1---------------------3-3-3-3--3--x-3--3-3-------I
G--0--2-2--x--2--x--2-2--2-2-0-2--2--x-2--0-2-------I   X4
D--2--2-2--x--2--x--2-2--0-0-0-0--0--x-0--0-0-------I
A--3--0-0--x--0--x--0-0-----------------------------I
E---------------------------------------------------I

Riff 2 :
[ Tab from: http://www.guitartabs.cc/tabs/s/scorpions/my_city_my_town_tab_ver_2.html ]
E------------------|---------------------I
B------------------|---------------------I
G--10--9--7--5--9--|--10--9--7--5--9-----I
D--10--9--7--5--9--|--10--9--7--5--9-----I
A--8---7--5--3--7--|--8---7--5--3--7-----I
E------------------|---------------------I

Refrain :

E-----------------------I
B-----------------------I
G--7----------4--2------I   X2
D--7--7---5---4--2------I
A--5--7---5---2--0------I
E-----5---3-------------I

Répéter le riff 1 puis le riff 2 et le refrain, puis...


Riff 3 :

E-------------------------------I
B------------------------3------I
G--4------4-------2------2------I
D--4--2---4--2----2------0------I
A--2--2---2--2----0-------------I
E-----0------0------------------I
Après le solo, répéter le riff 2. puis...

Riff 4 :

My city... My town...

E--------------3----|--------------3----I
B--1-----3-----3----|--1------3----3----I
G--0-----2-----0----|--0------2----0----I
D--2-----0----------|--2------0---------I
A--3----------------|--3----------------I
E-------------------|-------------------I
Comments