Scorpions - My City My Town Chords & Tabs

 

My City My Town Chords & Tabs

Scorpions Chords & Tabs

Version: 1 Type: Tab 0 ratings
1 star 2 stars 3 stars 4 stars 5 stars
comments

My City My Town Tab

   
Scorpions - My City My Town
+++++++++++++++++++++++++++

Date  : 19,October,2004
Song  : My City,My Town
Artist: Scorpions
Album : Unbreakable (2004)
I am  : Mohamed Hassan...20 years old...Egyptian

Another fine tune from the Scorps last album,Easy if you get the hang of it,but I couldn't get the solo


Intro :
------------------------------|
------------------------------|
-12-12s--10-10s-7--5-7-5-7----|
-12-12s--10-10s-7--5-7-5-7----|
-10-10s--8--8s--5--3-5-3-5----|
------------------------------|

--------------------0----0------|
----------------------3---3-----|
-12-12s--10-10s-7---------------|
-12-12s--10-10s-7---------------|
-10-10s--8--8s--5-------3---2---|
--------------------------------|

Verse :

Main Riff
-------------------------------------------------------|
-------------------------------------------------------|
-------------------------------------------------------|
--9s10--77-x-7-x-7-5-7--10s12-12--10-12--12-x-12-10-12-|
--9s10--77-x-7-x-7-7-7--10s12-12--10-12--12-x-12-10-12-|
--7s8---55-x-5-x-5-5-5--8s10--10--8--10--10-x-10-8--10-| x4

Those mighty wheels keep rollinon
On to that crazy place
That still feels like home
The world outside is rushing by
It feels good to take that road
Time after time

-----------------------------------------------|
-----------------------------------------------|
-----------------------------------------------|
-10-----------------9-----10----9--------------|
-10-----------------9-----10----9-one sturm----|
-8-repeat-as-needed-7-----8-----7--------------|

F5
   I dont know how you feel
   E5
My heart is beating fast
F5
  It has been way too long
E5
  But here I am Im back


Chorus :
[ Tab from: http://www.guitartabs.cc/tabs/s/scorpions/my_city_my_town_tab.html ]
------------------------------------------|
------------------------------------------|
--7------------6--------------------------|
--7------------7---------10---9--7--------|
--5ran---------7ran------10---9--7--------|
---------------5---------8----7--5--------|
             D5                A
Its good to know youre still around
            C5                 B5  A5
Youd never let me down, in my city
           D5               A
You get my feet back on the ground
            C                  B5 A5
Youd never let me down, in my city

Verse :
-------
No regrets, well just a few
You havent lost a thing
Im still crazy for you

F5
   I dont know how you feel
   E5
My heart is beating fast
F5
  It has been way too long
E5
  But here I am Im back

             D5                A
Its good to know youre still around
            C5                 B5  A5
Youd never let me down, in my city
           D5               A
You get my feet back on the ground
            C                  B5 A5
Youd never let me down, in my city

Bridge
-------
F#5             G5
   Ive been no stranger
         F#5            G5
To every corner of your heart
E5                                 D5
  Your dream still lives inside of me

F5
   I dont know how you feel
   E5
My heart is beating fast
F5
  It has been way too long
E5
  But here I am Im back

C           D
 In my city,  my town
G
 Deep in my heart, Im so proud
C           D
 Of my city,  my town
G
 Ill never, ever let you down

Its good to know youre still around
Youd never let me down, in my city
You get my feet back on the ground
Youd never let me down, in my city
My city, my town

in some places it can be useful to use High Chords,but it's not essential,just play what 
right to you.
Enjoy and any requests or comments email me metia_kickass@hotmail.com
------------------------------------------------------------------------
Comments