Scorpions - Moment Of Glory Chords & Tabs

 

Moment Of Glory Chords & Tabs

Scorpions Chords & Tabs

Version: 3 Type: Tab 0 ratings
1 star 2 stars 3 stars 4 stars 5 stars
comments

Moment Of Glory Tab

I'm One Of The Scorpions Fans.My Name Is Hassan Nosrat Abadi,But It Isn't Important Because

*****************************************************************
*I'm One Of The Scorpions Fans And This Is Very Important For Me*
*****************************************************************

       ********************************************************************************
       *Please Pay Attention to The Lyric Mean Carefully.What Is The "Moment Of Glory"*
       ********************************************************************************
      

                                            Solo
           ********************************************************************** 

Song:"Moment Of Glory"
Artist:"Scorpions"
Album="Moment Of Glory"
Lyricist="Klaus Meine"
Composer="Klaus Meine"
Tuning="regular tuning"
Transcribed by="Hassan Nosrat Abadi"


Solo Part 1:
[ Tab from: http://www.guitartabs.cc/tabs/s/scorpions/moment_of_glory_tab_ver_3.html ]
-------2-0--3-0------------2-3--3-0-3-5----------2-2-0-------0-0-2-0-2-3-5-|--|
---0-3----------1-3----0-3-----------------0h1h3-------0h1h3---------------|--|
-0-------------------0-----------------------------------------------------|--|
---------------------------------------------------------------------------|--|
---------------------------------------------------------------------------|--|
---------------------------------------------------------------------------|--|

Solo Part 2:

---------2-0-----------------------------2-0-----3-0---3-5--------------------|
----0-3-----------------------------0-3---------------------------------------|
-0-------------------------------0--------------------------------------------|
----------------------0-4-2---------------------------------------------------|
-------------------2----------------------------------------------------------|
-----------------3------------------------------------------------------------|


Solo Part 3:

---------2-0----3-0------------------2-3----3-0-3-5-----17------17-14h15-17|--|
----0-3---------------1-3-------0-3----------------17h19---17h19-----------|--|
-0---------------------------0---------------------------------------------|--|
---------------------------------------------------------------------------|--|
---------------------------------------------------------------------------|--|
---------------------------------------------------------------------------|--|


               ***************************************************************
               *This Is A Song That Evryone Injoy From Listening It.Isn't It?*
               ***************************************************************
Comments