Scorpions - Moment Of Glory Chords & Tabs

 

Moment Of Glory Chords & Tabs

Scorpions Chords & Tabs

Version: 1 Type: Tab 0 ratings
1 star 2 stars 3 stars 4 stars 5 stars
comments

Moment Of Glory Tab

----------------------------------PLEASE NOTE--------------------------------#
#This file is the author's own work and represents their interpretation of the#
#song. You may only use this file for private study, scholarship, or research.#
#-----------------------------------------------------------------------------#
#-- File created with Instab - http://www.pconline.com/~smcarey/instab.html --#
#-----------------------------------------------------------------------------#

Author/Artist: Scorpions
Title: Moment of Glory
Album: Moment of Glory
Transcribed by: ben_jovi2001
Email: ben_jovi2001@yahoo.com

Here are the basics of Moment of Glory, as far as I can tell.
I didn't tab out the weird flute stuff, because....well...I don't think I can.
If I could do classical stuff, I wouldn't be doing Scorpions ;)
enjoy and God bless :)

-------2-0--3-0------------2-3--3-0-3-5----------2-2-0-------0-0-2-0-2-3-5-|--
---0-3----------1-3----0-3-----------------0h1h3-------0h1h3---------------|--
-0-------------------0-----------------------------------------------------|--
---------------------------------------------------------------------------|--
---------------------------------------------------------------------------|--
---------------------------------------------------------------------------|--
 intro                                                                        

-3--2--0--2--3--2--0--2---3--2--0--2--3--2--0--2---0--0--0--2--0--2--0--2--|--
-3--3--1--3--3--3--1--3---3--3--1--3--3--3--1--3---1--0--1--3--1--3--1--3--|--
-0--4--0--2--0--4--0--2---0--4--0--2--0--4--0--2---2--0--0--2--2--4--0--2--|--
-0--4--2--0--0--4--2--0---0--4--2--0--0--4--2--0---2--2--2--0--2--4--2--0--|--
-2--2--3-----2--2--3------2--2--3-----2--2--3------0--2--3-----0--2--3-----|--
-3--2--------3--2---------3--2--------3--2------------0-----------2--------|--
      

-3--2--0--2--2--3--0--2---3--2--0--2--3--2--0--2---0--2--0--2--0--2--0--2--|--
-3--3--1--3--3--3--1--3---3--3--1--3--3--3--1--3---1--3--1--3--1--3--1--3--|--
-0--4--0--2--0--4--0--2---0--4--0--2--0--4--0--2---2--4--0--2--2--4--0--2--|--
-0--4--2--0--0--4--2--0---0--4--2--0--0--4--2--0---2--4--2--0--2--4--2--0--|--
-2--2--3-----2--2--3------2--2--3-----2--2--3------0--2--3-----0--2--3-----|--
-3--2--------3--2---------3--2--------3--2------------2-----------2--------|--
           
[ Tab from: http://www.guitartabs.cc/tabs/s/scorpions/moment_of_glory_tab.html ]
-0--------2--------0--------2--------0--------2--------0------------2------|--
-1--------3--------1--------3--------1--------3--------1------------3------|--
-2--------4--------0--------2--------2--------4--------0------------2------|--
-2--------4--------2--------0--------2--------4--------2------------0------|--
-0--------2--------3-----------------0--------2--------3-------------------|--
----------2-----------------------------------2----------------------------|--
                                 

---------2-0-----------------------------2-0-----3-0---3-5--------------------
----0-3-----------------------------0-3---------------------------------------
-0-------------------------------0--------------------------------------------
----------------------0-4-2---------------------------------------------------
-------------------2----------------------------------------------------------
-----------------3------------------------------------------------------------
 bridge                                                                       

-3-------2-------0-------2-------3-------2-------0-------2--------------2-----
-3-------3-------1-------3-------3-------3-------1-------3--------------3-----
-0-------4-------0-------2-------0-------4-------0-------2--------------2-----
-0-------4-------3-------0-------0-------4-------3-------0--------------0-----
-2-------2-------0---------------2-------2-------3----------------------------
-3-------2-----------------------3-------2------------------------------------
                         

---------2-0----3-0------------------2-3----3-0-3-5-----17------17-14h15-17|--
----0-3---------------1-3-------0-3----------------17h19---17h19-----------|--
-0---------------------------0---------------------------------------------|--
---------------------------------------------------------------------------|--
---------------------------------------------------------------------------|--
---------------------------------------------------------------------------|--
 strings behind chorus                                                        

-3--2--0--2--3--2--0--2---3--2--0--2--3--2--0--2---0--0--0--2--0--2--0--2--|--
-3--3--1--3--3--3--1--3---3--3--1--3--3--3--1--3---1--0--1--3--1--3--1--3--|--
-0--4--0--2--0--4--0--2---0--4--0--2--0--4--0--2---2--0--0--2--2--4--0--2--|--
-0--4--2--0--0--4--2--0---0--4--2--0--0--4--2--0---2--2--2--0--2--4--2--0--|--
-2--2--3-----2--2--3------2--2--3-----2--2--3------0--2--3-----0--2--3-----|--
-3--2--------3--2---------3--2--------3--2------------0-----------2--------|--
     

-3--2--0--2--3--2--0--2---3--2--0--2--3--2--0--2-------2-------------------|--
-3--3--1--3--3--3--1--3---3--3--1--3--3--3--1--3-------3-------------------|--
-0--4--0--2--0--4--0--2---0--4--0--2--0--4--0--2-------2-------------------|--
-0--4--2--0--0--4--2--0---0--4--2--0--0--4--2--0-------0-------------------|--
-2--2--3-----2--2--3------2--2--3-----2--2--3------------------------------|--
-3--2--------3--2---------3--2--------3--2---------------------------------|--
                                    
Comments