Scorpions - Lonely Nights Chords & Tabs

 

Lonely Nights Chords & Tabs

Scorpions Chords & Tabs

Version: 1 Type: Tab 0 ratings
1 star 2 stars 3 stars 4 stars 5 stars
comments

Lonely Nights Tab

Artist:Scorpions
Album:Face the heat
Tabbed by:Rabih haddad
mail: bornin_2000@hotmail.com ,,  if u need the official notes i have them.                                 

---------------------------------------------------------------
----0-----------0-----------0-----------0----------------------
------5------------5-----------0-----------0-------------------
---------7-----------7------------7-----------7----------------
--0---------8-----------5------------7-------------------------
---------------------------------------------------------------

[ Tab from: http://www.guitartabs.cc/tabs/s/scorpions/lonely_nights_tab.html ]
---------------------------------------------------------------
-----0-----------0------------0-------------0--------0---------
--------5------------5-----------5-----------------------------
-----------7------------7-----------7--------------------------
--0----------8-------------5-----------------------------------
----------------------------------------8-------7--------------
                                       Since    your...
---------------------------------------------------------------
----0-----------0-----------0-----------0----------------------
------5------------5-----------0-----------0-------------------
---------7-----------7------------7-----------7----------------
--0---------8-----------5------------7-------------------------
---------------------------------------------------------------

---------------------------------------------------------------
----0-----------0-------------0--------------------------------
------5------------5----------5--------------------------------this is used in intro only 
---------7-----------7--------7--------------------------------
--0---------8-----------------0--------------------------------
---------------------------------------------------------------


this is used for the verse2:

-----0------0-------0------1------1---------------0----------0--------
-------1-------1-------------3------3---------------1-----------0-----
---------2-------2-------------2------2--0------------0-----------0---
------------------------0-------------------0-------------------------
--0--------------------------------------------3----------------------
----------------------------------------------------------0-----------


the chords used are:

Am,F,C,E    these chords are distorted, and this is their 
consequence all through the song. 
Comments