Scorpions - Is There Anybody There Chords & Tabs

 

Is There Anybody There Chords & Tabs

Scorpions Chords & Tabs

Version: 1 Type: Tab 0 ratings
1 star 2 stars 3 stars 4 stars 5 stars
comments

Is There Anybody There Tab

Is there anybody there?           Schenker/Meine/Rarebell
Lovedrive
Scorpions

Standard tuning

Beautiful song kind of reggae


clean tone
Intro
---2-2--2-2--2-2--2-2------------------------
---3-3--3-3--3-3--3-3------------------------
---4-4--2-2--2-2--2-2------------------------
---4-4--4-4--4-4--4-4------------------------
---2-2--2-2--2-2--2-2------------------------
---------------------------------------------



Distortion
--2------0------2-------0-------2------0---
--3------1------0-------0-------3------1---
--2------0------2-------0-------2------0---
--0------2------1-------2-------0------2---
---------3--------------2--------------3---
------------------------0------------------
Ahh ahh.........

[ Tab from: http://www.guitartabs.cc/tabs/s/scorpions/is_there_anybody_there_tab.html ]
Clean tone
---2-2--2-2--2-2--2-2-------------------------------
---3-3--3-3--3-3--3-3-------------------------------
---4-4--4-4--4-4--4-4-------------------------------
---4-4--4-4--4-4--4-4-------------------------------
---2-2--2-2--2-2--2-2-------------------------------
----------------------------------------------------
open my mind..................

---------0-0--0-0---------------2-------------
---------2-2--2-2---------------3-------------
---------2-2--2-2---------------4-------------
---------2-2--2-2---------------4-------------
---------0-0--0-0---------------2-------------
----------------------------------------------
...my destination ...i can stay


Distortion
---------3------0----2-----0------3----2-------
---------0------2----3-----0------0----3-------
---------0------2----2-----1------0----4-------
---------0------2----0-----2------0----4-------
---------x------0----------2------x----2------
---------3-----------------0------3---------
Is there anybody there....


This version is the original but if someone knows the little fills of live 
bites
please put them they really rocks

mirsha_joker@hotmail.com

metal-maniaco@the-scorpions.com
Comments