Scorpions - Im Leaving You Chords & Tabs

 

Im Leaving You Chords & Tabs

Scorpions Chords & Tabs

Version: 1 Type: Tab 0 ratings
1 star 2 stars 3 stars 4 stars 5 stars
comments

Im Leaving You Tab

Scorpions - I'm Leaving You
Transcribed by - Greg Heimann            / = slide up   b = bend
                                         \ = slide down r = release
                                         h = hammer on  p = pulloff
    Main Riff

e------------------------------------------------------------|
B------------------------------------------------------------|
G------------------------------------------------------------|
D--------------------------7/9--------------------------7/9--|
A-----7--5--3---/7-5-3--5--5/7-----7--5--3---/7-5-3--5--5/7--|
E--0----------------------------0----------------------------|


    1st solo

|--12\-------------------------------------------------------------------------------|
|--12\-------------------------------------------------------------------------------|
|--------------------------------------------------------------------------9\--9\----|
|-------------------------------------12-12--/14---------------------/9-7--9\--------|
|--------7---7-7/9--9/10--10/12--/14-------------7-7/9--9/10--10/12------------------|
|------------------------------------------------------------------------------------|


|----------------------------------------------------------------------------------|
|----------------------------------------------------------------------------------|
|-----------------------------------------------------11-12p11--------14br14br14b--|
|--------------------------12-12--/14--/14---12-12h14----------14-12---------------|
|--7-7/9--9/10--10/12--/14---------------------------------------------------------|
|----------------------------------------------------------------------------------|


|----14-15-14-12----17br--17b-17--15--14--15-14------19--17-15-14-15-17p15-14------|
|--12-----------15------------------------------17-----------------------------17--|
|----------------------------------------------------------------------------------|
|----------------------------------------------------------------------------------|
|----------------------------------------------------------------------------------|
|----------------------------------------------------------------------------------|

[ Tab from: http://www.guitartabs.cc/tabs/s/scorpions/im_leaving_you_tab.html ]
|-15p14----/12--------------------|
|-------15------------------------|
|----------------(end 1st solo)---|
|---------------------------------|
|---------------------------------|
|---------------------------------|

     Verse [Play notes in () 2nd time only]
                                                                      1st ending    2nd ending
|----------------------------------------------------------------------------------------------|
|----------------------------------------------------------------------------------------------|
|----------------------------------------------------------------------------------------------|
|------------(7--7-7)-----------(7--7-7)------------(7--7-7)------------777777-------9------7--|
|-----5--3---(5--5-5)-----5--3--(5--5-5)-----5--3---(5--5-5)-----5--3---555555-------7------5--|
|--0-------------------0------------------0-------------------0--------------------------------|

    2nd solo

|--------------------------------------------------------------------------|
|--------------------------------------------------------------------------|
|----------------------------7-7-/9------------11-12p11-------14br14br14b--|
|--------------------7/9--/9----------12-12h14----------14-12--------------|
|--7/9--9/10--10/12--------------------------------------------------------|
|--------------------------------------------------------------------------|

|------------------------------------------------------------------12--------------12---|
|---------------------------------------------------------------------------------------|
|-----------------------------7-7-/9----------11-12p11----11--14b(hold bend)-(14)-------|
|-------------------7/9--/9----------12-12h14-----------14------------------------------|
|--7/9--9/10--10/12---------------------------------------------------------------------|
|---------------------------------------------------------------------------------------|
                                                                           (end 2nd solo)

   Interlude (Keep me in your mind...)
|-----------------------------------------|
|-----------------------------------------|
|-------9---------------------------------|
|--12---7-11------9-------12-11---7/9-7---|
|--10------9---12-7----12-10--9---5/7-5---|
|--------------10------10-----------------|
Comments