Scorpions - Holiday Chords & Tabs

 

Holiday Chords & Tabs

Scorpions Chords & Tabs

Version: 6 Type: Tab 0 ratings
1 star 2 stars 3 stars 4 stars 5 stars
comments

Holiday Tab

   
                 I'm One Of The Scorpions Fans.My Name Is Hassan Nosrat Abadi,But It Isn't Important Beacause

                             *****************************************************************
                             *I'm One Of The Scorpions Fans And This Is Very Important For Me*
                             *****************************************************************


                    ************************************************************************************
                    *It's Really Beautifull Song.One Of The Best Song That We listen Till Now.Isn't It?*
                    ************************************************************************************


                                                       Tabs And Chords
                            **********************************************************************

Song:"Holiday"
Artist:"Scorpions"
Album="Lovedrive"
Lyricist="Klaus Meine"
Composer="Rudolf Schenker"
Tuning="Regular Tuning"
Transcribed by="Hassan Nosrat Abadi"


                                               Intro Solo (Acoustic Guitar)


          |--------------------|---------------------|--------------------|--------------------|--------------------|
          |--------------------|---------------------|--------------------|--------------------|--------------------|
  Solo    |--------------------|---------------------|--------------------|--------------------|--------------------|
   ||     |0-------------------|3--------------------|5/7-----------------|5\2-----------------|-----------------5--|
   ||     |--------------------|---------------------|--------------------|--------------------|--------------------|
   ||     |--------------------|---------------------|--------------------|--------------------|--------------------|
   ||
   ||               Dm                   Dm7                   Dm6                  A4                   A' 
   ||     |----1------1------1-|----1------1-------1-|----1------1------1-|----0------0------0-|----5------5------5-|
   ||     |------3------3------|------3------3-------|------3------3------|------3------3------|------5------5------|
 Rhythm   |--------2------2----|--------2------2-----|--------2------2----|--------2------2----|--------2------2----|
          |-0------------------|---------------------|--------------------|--------------------|--------------------|
          |--------------------|-3-------------------|-1------------------|-0------------------|-0------------------|
          |--------------------|---------------------|--------------------|--------------------|--------------------|



          |--------------------|---------------------|--------------------|--------------------|--------------------|
          |--------------------|---------------------|--------------------|--------------------|9^----------8-------|
  Solo    |--------------------|------------------7-7|--9--10-7-----------|9---10---9----------|--------------------|
   ||     |3--5-5/7------------|---------------------|--------------------|--------------------|--------------------|
   ||     |--------------------|---------------------|--------------------|--------------------|--------------------|
   ||     |--------------------|---------------------|--------------------|--------------------|--------------------|
   ||
   ||               Dm                   Dm7                   Dm6                  A4                   A'  
   ||     |----1------1------1-|----1------1-------1-|----1------1------1-|----0------0------0-|----5------5------5-|
   ||     |------3------3------|------3------3-------|------3------3------|------3------3------|------5------5------|
   ||     |--------2------2----|--------2------2-----|--------2------2----|--------2------2----|--------2------2----|
 Rhythm   |-0------------------|---------------------|--------------------|--------------------|--------------------|
          |--------------------|-3-------------------|-1------------------|-0------------------|-0------------------|
          |--------------------|---------------------|--------------------|--------------------|--------------------|


          |--------------------|---------------------|--------------------|--------------------|--------------------|
          |--5--6--3-----------|----5-6---3----5-----|6---3---------------|--------------------|--------------------|
  Solo    |-------------2------|---------------------|---------2---0------|--------------------|--------------------|
   ||     |--------------------|---------------------|--------------------|----2----3-----5----|5/7-------5----3----|
   ||     |--------------------|---------------------|--------------------|--------------------|--------------------|
   ||     |--------------------|---------------------|--------------------|--------------------|--------------------|
   ||
   ||               Dm                   Dm7                   Dm6                  A4                   A'  
   ||     |----1------1------1-|----1------1-------1-|----1------1------1-|----0------0------0-|----5------5------5-|
   ||     |------3------3------|------3------3-------|------3------3------|------3------3------|------5------5------|
 Rhythm   |--------2------2----|--------2------2-----|--------2------2----|--------2------2----|--------2------2----|
          |-0------------------|---------------------|--------------------|--------------------|--------------------|
          |--------------------|-3-------------------|-1------------------|-0------------------|-0------------------|
          |--------------------|---------------------|--------------------|--------------------|--------------------|


          |--------------------|---------------------|--------------------|--------------------|--------------------|
          |--------------------|-----3---------------|3----5------6-------|--------8----9^-----|--------------------|
  Solo    |--------------------|-2-------2-----------|--------------------|--------------------|--------------------|
   ||     |--------------------|---------------------|--------------------|--------------------|--------------------|
   ||     |7--------0----------|---------------------|--------------------|--------------------|--------------------|
   ||     |--------------------|---------------------|--------------------|--------------------|--------------------|
   ||
   ||               Dm                   Dm7                   Dm6                  A4                   A' 
   ||     |----1------1------1-|----1------1-------1-|----1------1------1-|----0------0------0-|----5------5------5-|
   ||     |------3------3------|------3------3-------|------3------3------|------3------3------|------5------5------|
 Rhythm   |--------2------2----|--------2------2-----|--------2------2----|--------2------2----|--------2------2----|
          |-0------------------|---------------------|--------------------|--------------------|--------------------|
          |--------------------|-3-------------------|-1------------------|-0------------------|-0------------------|
          |--------------------|---------------------|--------------------|--------------------|--------------------|




                                                            Verse 1


                    Dm                   Dm                    C                    A                    Dm
          |----1------1------1-|----1------1------1-|----0------0---------|----0------0------0-|----1------1------1-|
          |------3------3------|------3------3------|------1------1-------|------2------2------|------3------3------|
          |--------2------2----|--------2------2----|--------0------------|--------2------2----|--------2------2----|
          |-0------------------|-0------------------|---------------------|--------------------|-0------------------|
          |--------------------|--------------------|-3-------------3--2--|-0------------------|--------------------|
          |--------------------|--------------------|---------------------|--------------------|--------------------|
           Let Me Take You Fa...r Away                 You'd Like A          Ho.........li.........day 


                    Dm                   Dm                    C                    A                    Dm
          |----1------1------1-|----1------1------1-|----0------0---------|----0------0------0-|----1------1------1-|
          |------3------3------|------3------3------|------1------1-------|------2------2------|------3------3------|
          |--------2------2----|--------2------2----|--------0------------|--------2------2----|--------2------2----|
          |-0------------------|-0------------------|---------------------|--------------------|-0------------------|
          |--------------------|--------------------|-3-------------3--2--|-0------------------|--------------------|
          |--------------------|--------------------|---------------------|--------------------|--------------------|
           Let Me Take You Fa...r Away                 You'd Like A          Ho.........li.........day           


                                          Dm                    C                   Dm
                               |----1------1------1-|----0------0---------|----1------1------1-|
                               |------3------3------|------1------1-------|------3------3------|
                               |--------2------2----|--------0------------|--------2------2----|
                               |-0------------------|---------------------|-0------------------|
                               |--------------------|-3-------------3--2--|--------------------|
                               |--------------------|---------------------|--------------------|
                                  Excha..........nge  The Cold Da.......ys For The Sun


                               G                    G                    C                    C 
                    |----3------3------3-|----3------3------3-|----0------0---------|----0------0---------|
                    |------0------0------|------0------0------|------1------1-------|------1------1-------|
                    |--------0------0----|--------0------0----|--------0------------|--------0------------|
                    |--------------------|--------------------|---------------------|---------------------|
                    |--------------------|--------------------|-3-------------3--2--|-3-------------3--2--|
                    |-3------------------|-3------------------|---------------------|---------------------|
                      Good Ti..............................mes And Fu.................n


                    Dm                   Dm                    C                    A                    Dm
          |----1------1------1-|----1------1------1-|----0------0---------|----0------0------0-|----1------1------1-|
          |------3------3------|------3------3------|------1------1-------|------2------2------|------3------3------|
          |--------2------2----|--------2------2----|--------0------------|--------2------2----|--------2------2----|
          |-0------------------|-0------------------|---------------------|--------------------|-0------------------|
          |--------------------|--------------------|-3-------------3--2--|-0------------------|--------------------|
          |--------------------|--------------------|---------------------|--------------------|--------------------|
           Let Me Takes And Fu............nd         You'd Like A            Ho.........li........day 



                                                       Rhythm Under Solo


                    Dm                   Dm7                   Dm6                  A4                   A' 
          |----1------1------1-|----1------1-------1-|----1------1------1-|----0------0------0-|----5------5------5-|
          |------3------3------|------3------3-------|------3------3------|------3------3------|------5------5------|
          |--------2------2----|--------2------2-----|--------2------2----|--------2------2----|--------2------2----|
          |-0------------------|---------------------|--------------------|--------------------|--------------------|
          |--------------------|-3-------------------|-1------------------|-0------------------|-0------------------|
          |--------------------|---------------------|--------------------|--------------------|--------------------|


                                                            Verse 2

[ Tab from: http://www.guitartabs.cc/tabs/s/scorpions/holiday_tab_ver_6.html ]
                    Dm                   Dm                    C                    A                    Dm
          |----1------1------1-|----1------1------1-|----0------0---------|----0------0------0-|----1------1------1-|
          |------3------3------|------3------3------|------1------1-------|------2------2------|------3------3------|
          |--------2------2----|--------2------2----|--------0------------|--------2------2----|--------2------2----|
          |-0------------------|-0------------------|---------------------|--------------------|-0------------------|
          |--------------------|--------------------|-3-------------3--2--|-0------------------|--------------------|
          |--------------------|--------------------|---------------------|--------------------|--------------------|
           Let Me Take You Fa...r Away                 You'd Like A          Ho.........li.........day 


                    Dm                   Dm                    C                    A                    Dm
          |----1------1------1-|----1------1------1-|----0------0---------|----0------0------0-|----1------1------1-|
          |------3------3------|------3------3------|------1------1-------|------2------2------|------3------3------|
          |--------2------2----|--------2------2----|--------0------------|--------2------2----|--------2------2----|
          |-0------------------|-0------------------|---------------------|--------------------|-0------------------|
          |--------------------|--------------------|-3-------------3--2--|-0------------------|--------------------|
          |--------------------|--------------------|---------------------|--------------------|--------------------|
           Let Me Take You Fa...r Away                 You'd Like A          Ho.........li.........day       


                                         Dm                    C                   Dm
                               |----1------1------1-|----0------0---------|----1------1------1-|
                               |------3------3------|------1------1-------|------3------3------|
                               |--------2------2----|--------0------------|--------2------2----|
                               |-0------------------|---------------------|-0------------------|
                               |--------------------|-3-------------3--2--|--------------------|
                               |--------------------|---------------------|--------------------|
                                  Excha..........nge  Your Troub.......les For Some Love


                               G                    G                    C                    C 
                    |----3------3------3-|----3------3------3-|----0------0---------|----0------0---------|
                    |------0------0------|------0------0------|------1------1-------|------1------1-------|
                    |--------0------0----|--------0------0----|--------0------------|--------0------------|
                    |--------------------|--------------------|---------------------|---------------------|
                    |--------------------|--------------------|-3-------------3--2--|-3-------------3--2--|
                    |-3------------------|-3------------------|---------------------|---------------------|
                      Whereve................................r You Are



                    Dm                   Dm                    C                    A                    D
          |----1------1------1-|----1------1------1-|----0------0---------|----0------0------0-|----1------1------1-|
          |------3------3------|------3------3------|------1------1-------|------2------2------|------3------3------|
          |--------2------2----|--------2------2----|--------0------------|--------2------2----|--------2------2----|
          |-0------------------|-0------------------|---------------------|--------------------|-0------------------|
          |--------------------|--------------------|-3-------------3--2--|-0------------------|--------------------|
          |--------------------|--------------------|---------------------|--------------------|--------------------|
           Let Me Take You Fa...r Away                 You'd Like A          Ho.........li.........day 


                    Dm                   Dm7                   Dm6                  A4                   A' 
          |----1------1------1-|----1------1-------1-|----1------1------1-|----0------0------0-|----5------5------5-|
          |------3------3------|------3------3-------|------3------3------|------3------3------|------5------5------|
          |--------2------2----|--------2------2-----|--------2------2----|--------2------2----|--------2------2----|
          |-0------------------|---------------------|--------------------|--------------------|--------------------|
          |--------------------|-3-------------------|-1------------------|-0------------------|-0------------------|
          |--------------------|---------------------|--------------------|--------------------|--------------------|
           Oh.......................Oooh.............................Ooh...........................Ooh


                    Dm                   Dm7                   Dm6                  A4                   A' 
          |----1------1------1-|----1------1-------1-|----1------1------1-|----0------0------0-|----5------5------5-|
          |------3------3------|------3------3-------|------3------3------|------3------3------|------5------5------|
          |--------2------2----|--------2------2-----|--------2------2----|--------2------2----|--------2------2----|
          |-0------------------|---------------------|--------------------|--------------------|--------------------|
          |--------------------|-3-------------------|-1------------------|-0------------------|-0------------------|
          |--------------------|---------------------|--------------------|--------------------|--------------------|
           Oh........................Ooh.............................Ooh...........................Ooh


                    Dm                   Dm7                   Dm6                  A4                   A' 
          |----1------1------1-|----1------1-------1-|----1------1------1-|----0------0------0-|----5------5------5-|
          |------3------3------|------3------3-------|------3------3------|------3------3------|------5------5------|
          |--------2------2----|--------2------2-----|--------2------2----|--------2------2----|--------2------2----|
          |-0------------------|---------------------|--------------------|--------------------|--------------------|
          |--------------------|-3-------------------|-1------------------|-0------------------|-0------------------|
          |--------------------|---------------------|--------------------|--------------------|--------------------|
           Oh........................Ooh.............................Ooh...........................Ooh



                                                           Verse 3

                                Dm                  Dm                   C                 Bb 
                       |---------1---------|---------1---------|---------0---------|--------1--------|
                       |---------3---------|---------3---------|---------1---------|--------3--------|
                       |---------2---------|---------2---------|---------0---------|--------3--------|
                       |---------0---------|---------0---------|---------2---------|--------3--------|
                       |---------0---------|---------0---------|---------3---------|--------1--------|
                       |-------------------|-------------------|-------------------|--------1--------|
                        Longing For The Sun    You Will Come      To The Island        Without Name


                                Dm                  Dm                   C                 Bb 
                       |---------1---------|---------1---------|---------0---------|--------1--------|
                       |---------3---------|---------3---------|---------1---------|--------3--------|
                       |---------2---------|---------2---------|---------0---------|--------3--------|
                       |---------0---------|---------0---------|---------2---------|--------3--------|
                       |---------0---------|---------0---------|---------3---------|--------1--------|
                       |-------------------|-------------------|-------------------|--------1--------|
                        Longing For The Sun      Be Welcome       On The Island      Many Miles Away 
                                                                                        From Home


                                Dm                  Dm                   C                 Bb 
                       |---------1---------|---------1---------|---------0---------|--------1--------|
                       |---------3---------|---------3---------|---------1---------|--------3--------|
                       |---------2---------|---------2---------|---------0---------|--------3--------|
                       |---------0---------|---------0---------|---------2---------|--------3--------|
                       |---------0---------|---------0---------|---------3---------|--------1--------|
                       |-------------------|-------------------|-------------------|--------1--------|
                                                 Be welcome        On The Island      Without Name


                                Dm                  Dm                   C                 Bb 
                       |---------1---------|---------1---------|---------0---------|--------1--------|
                       |---------3---------|---------3---------|---------1---------|--------3--------|
                       |---------2---------|---------2---------|---------0---------|--------3--------|
                       |---------0---------|---------0---------|---------2---------|--------3--------|
                       |---------0---------|---------0---------|---------3---------|--------1--------|
                       |-------------------|-------------------|-------------------|--------1--------|
                        Longing For The Sun      Be Welcome       On The Island      Many Miles Away 
                                                                                        From Home


                                Dm                  Dm                   C                 Bb 
                       |---------1---------|---------1---------|---------0---------|--------1--------|
                       |---------3---------|---------3---------|---------1---------|--------3--------|
                       |---------2---------|---------2---------|---------0---------|--------3--------|
                       |---------0---------|---------0---------|---------2---------|--------3--------|
                       |---------0---------|---------0---------|---------3---------|--------1--------|
                       |-------------------|-------------------|-------------------|--------1--------|
                        Away From Home...


                                Dm                  Dm                   C                 Bb 
                       |---------1---------|---------1---------|---------0---------|--------1--------|
                       |---------3---------|---------3---------|---------1---------|--------3--------|
                       |---------2---------|---------2---------|---------0---------|--------3--------|
                       |---------0---------|---------0---------|---------2---------|--------3--------|
                       |---------0---------|---------0---------|---------3---------|--------1--------|
                       |-------------------|-------------------|-------------------|--------1--------|
                        Away From Home...


                                           Rhythm Under Solo (Repeat Till End Of Song)


                    Dm                    Dm7                 Dm6                  A4                    A' 
          |----1------1------1-|----1------1-------1-|----1------1------1-|----0------0------0-|----5------5------5-|
          |------3------3------|------3------3-------|------3------3------|------3------3------|------5------5------|
          |--------2------2----|--------2------2-----|--------2------2----|--------2------2----|--------2------2----|
          |-0------------------|---------------------|--------------------|--------------------|--------------------|
          |--------------------|-3-------------------|-1------------------|-0------------------|-0------------------|
          |--------------------|---------------------|--------------------|--------------------|--------------------|




                                    ********************************************************
                                    *One Of The Best Song That We listen Till Now.Yes It Is*
                                    ********************************************************
Comments