Scorpions - Holiday Chords & Tabs

 

Holiday Chords & Tabs

Scorpions Chords & Tabs

Version: 4 Type: Tab 0 ratings
1 star 2 stars 3 stars 4 stars 5 stars
comments

Holiday Tab

   
Standard tuning (EADGBe)
Slide up = /
Slide down= \
b = bend
Holiday intro
Hey all, this is my first tab ever...but i love the scorpions and i love this song ...if 
are any proplems just comment or e-mail me at unforgivenacw@yahoo.com ty and plz rate.

LISTEN TO SONG FOR TIMING, although i did lay out the tabs smoothly if your listening 
follow each note :)

e] -------------------------------------------------------------------------|
B]--------------------------------------------------------------------------|
G]------------------------------------------------------------7------7------|
D]-0------3------5/7------------5--2--------5------3-5--5/7-----------------|
A]--------------------------------------------------------------------------|
E]--------------------------------------------------------------------------|

[ Tab from: http://www.guitartabs.cc/tabs/s/scorpions/holiday_tab_ver_4.html ]
e]---------------------------------------------------------------------------|
B]--5--6--3----5--6--5------8b-----8------5--6--3-------5--6--3---5---6-7----|
G]------------------------------------------------2-2--------------------2-0-|
D]---------------------------------------------------------------------------|
A]---------------------------------------------------------------------------|
E]---------------------------------------------------------------------------|


e]-- -----------------------------------------------------------------------|
B]-------------------------------------------------------------8---9b-------|
G]------------------------------------------7-------7---9--10---------------|
D]--2-3-5------5-------3---5/7---------7-------7----------------------------|
A]------------------------------5-------------------------------------------|
E]--------------------------------------------------------------------------|
Comments