Scorpions - Fly To The Rainbow Chords & Tabs

 

Fly To The Rainbow Chords & Tabs

Scorpions Chords & Tabs

Version: 1 Type: Tab 0 ratings
1 star 2 stars 3 stars 4 stars 5 stars
comments

Fly To The Rainbow Tab

Subject: Fly To The Rainbow
Artist: Scorpions
From The Album : Fly To The Rainbow
Music: Rudolf Schenker 
Lyrics: Klaus Meine


This Tab is donated by John-Paul Jalwan 
my e-mail: jp@cartage.org.lb
	   johnpauljalwan@hotmail.com
	   blackout@cyberia.net.lb
	
***My Scorpions' Website: http://scorps.itgo.com


Normal Tuning


[ Tab from: http://www.guitartabs.cc/tabs/s/scorpions/fly_to_the_rainbow_tab.html ]
Gtr1|-------7-10--8-7-----------|--------7-------------------|
    |--8-10-----------10--10-10-|-7-8-10---10-7-8--8-8-------|
    |---------------------------|----------------------------|
    |---------------------------|----------------------------|
    |---------------------------|----------------------------|
    |---------------------------|----------------------------|
    |                                                        |	
    |                                                        |
    |                                                        |
Gtr2|--------------------------|-----------------------------|
    |----7-8--10--8-7h8--7--7-7|------7-8-7------------------|
    |--9-----------------------|-7-9--------7-9--9-9---------|
    |--------------------------|-----------------------------|
    |--------------------------|-----------------------------|
    |--------------------------|-----------------------------|


Gtr1|------------------|------------------|
    |-10b-10-8-10--8-7-|-10--8-7--8--7----|
    |------------------|---------------9--|
    |------------------|------------------|
    |------------------|------------------|
    |------------------|------------------|
    |                                     |
    |                                     |
    |                                     |
Gtr2|------------------|-10b-10--7--7-----|
    |---7-8-7--8-10----|--------------10--|
    |-9----------------|-----------------8|
    |------------------|------------------|
    |------------------|------------------|
    |------------------|------------------|
Comments