Scorpions - Crossfire Chords & Tabs

 

Crossfire Chords & Tabs

Scorpions Chords & Tabs

Version: 1 Type: Tab 0 ratings
1 star 2 stars 3 stars 4 stars 5 stars
comments

Crossfire Tab

Crossfire
by Scorpions, Love at First Sting
Transcribed by Martin Wong and Rob Schenk
martin7218@earthlink.net, robertschenk@hotmail.com


        Intro, normal tuning
E-----------------------------------------------------------------------
B-----------------------------------------------------------------------
G---9--5--7--4-----------9--5--7--4-------------------------------------
D---9--5--7--4-----------9--5--7--4-------------------------------------
A---7--3--5--2-----------7--3--5--2-------------------------------------
E-----------------------------------------------------------------------


[ Tab from: http://www.guitartabs.cc/tabs/s/scorpions/crossfire_tab.html ]
E---12\---3p0--0---5p0-----7p0-----0-----8p0-----7p0-----5p0-----0------
B-----------------------------------------------------------------------
G-----------------------------------------------------------------------
D-----------------------------------------------------------------------
A-----------------------------------------------------------------------
E-----------------------------------------------------------------------



E---0----3p0--0----5p0----7p0----0----8p0----0----0----7----0----0------
B-----------------------------------------------------------------------
G-----------------------------------------------------------------------
D-----------------------------------------------------------------------
A-----------------------------------------------------------------------
E-----------------------------------------------------------------------
Comments