Scorpions - Coming Home Chords & Tabs

 

Coming Home Chords & Tabs

Scorpions Chords & Tabs

Version: 1 Type: Tab 0 ratings
1 star 2 stars 3 stars 4 stars 5 stars
comments

Coming Home Tab

Scorpions
Love At First Sting
"Coming Home"

This is the intro to Coming Home.

I figured this out on my own one night about 10 years ago.

( Listen to the song for timing)

---------------------------------------------------------------------------
--------3--1-----------3--1------------3--2------------3--2----------------
------0------0-------0------0--------2------2--------2------2--------------
----2----------2---2----------2----2----------2----2----------2----(Repeat)
--3--------------3---------------0--------------0--------------------------
---------------------------------------------------------------------------
[ Tab from: http://www.guitartabs.cc/tabs/s/scorpions/coming_home_tab.html ]
-------3--1--0-------------3--1--0-----------------------------------------
-----3---------3---------3---------3-----------3--2-----------3--2---------
---2-------------------2---------------------2------2-------2--------------
-0-------------------0---------------------2----------2---2----------------
-----------------------------------------0--------------0------------------
---------------------------------------------------------------------------

---------------------------------------------------------------------------
-------------3--1------------3--1---------------3--2-------------3--2------
-----------0------0--------0------0-----------2------2--------2--------2---
---------2----------2----2----------2-------2----------2----2-------------2
-0--2--3---------------3--------------3---0---------------0----------------
---------------------------------------------------------------------------

I dont have the solo intro, if you have it or know it please write it down
and e-mail it to me @ ssteve@primenet.com

ENJOY!
Comments