Scorpions - Cant Live Without You Chords & Tabs

 

Cant Live Without You Chords & Tabs

Scorpions Chords & Tabs

Version: 1 Type: Tab 0 ratings
1 star 2 stars 3 stars 4 stars 5 stars
comments

Cant Live Without You Tab

Can't live without you                      Schenker/Meine
Blackout
Scorpions



Standard tuning
All guitars w/distor
---------------------------------------------------------------
---------------------------------------------------------------
---------------------------------------------------------------
---------------------------------------------------------------
--x-x-x-x-x-x-x-x-x-x-x-x-x-x---------------------(7)-(7)-7----
--x-x-x-x-x-x-x-x-x-x-x-x-x-x-5-5-5-5-5-5-5-5-5-5--5---5--5----
p.m.......................................grad. release
                        one two...................1,2,3,4



guitar 1
----------------------------------------
----------------------------------------
----------------------------------------
----------------------------------------
----------------------------------------
----x-x-x-x-x-x-x-x-x-x-x-x-x-x---------
guitar 2
-----------------------------------------
-----------------------------------------
---5-4--5-4-x-5-4--5-4-------------------
---5-5--5-5-x-5-5--5-5-------------------
-------x----------x----------------------
-------x----------x----------------------
Can't live without you


[ Tab from: http://www.guitartabs.cc/tabs/s/scorpions/cant_live_without_you_tab.html ]
Verse
-----------------------------------------
-----------------------------------------
-----6--6---6--6---6--6------------------
-----7--7---7--7---7--7------------------
-----7--7---7--7---7--7------------------
-----5--5---5--5---5--5------------------
p.m...      .      .


-----5-5-5-5-----------5-5-5-5-------------5-5-5-5------------------------------------------
-----7-7-7-7--5-5-5-5--7-7-7-7--5-5-5-5----7-7-7-7--5-5-5-5---------------------------------
-----7-7-7-7--6-6-6-6--7-7-7-7--6-6-6-6----7-7-7-7--6-6-6-6---------------------------------
-----7-7-7-7--7-7-7-7--7-7-7-7--7-7-7-7----7-7-7-7--7-7-7-7--5-5-5-5-5-5-5-5-5-5-7-7-7-7-7-7
-----5-5-5-5--7-7-7-7--5-5-5-5--7-7-7-7----5-5-5-5--7-7-7-7--5-5-5-5-5-5-5-5-5-5-7-7-7-7-7-7
--------------5-5-5-5-----------5-5-5-5-------------5-5-5-5--3-3-3-3-3-3-3-3-3-3-5-5-5-5-5-5
Stand up and.......


Rhythm under solo
----------------------------------------------
----------------------------------------------
----------------------------------------------
----7---5---3---5---7-7---5---3---5---7-7-----
----7---5---3---5---7-7---5---3---5---7-7-----
----5---3---1---3---5-5---3---1---3---5-5-----


ok here is my version of can't live without you, i do it with an acoustical guitar so
maybe some parts are wrong now the solo and the fills are very easy i will send to you soon
or if someone knows the fills just put them

Mirsha

metal-maniaco@the-scorpions.com         mirsha_joker@hotmail.com
Comments