Scorpions - But The Best For You Chords & Tabs

 

But The Best For You Chords & Tabs

Scorpions Chords & Tabs

Version: 1 Type: Bass Tab 0 ratings
1 star 2 stars 3 stars 4 stars 5 stars
comments

But The Best For You Bass Tab

But The Best For You

Verse:
G|-------------------------------------------------------|---------|
D|--------4---------4------------------------------------|-4---4---|
A|-----2-2-2---4-2-2-2----2-0-0-0-0-0-0-0-02-2-2-2-2-2-2-|--4-2-0--|
E|-2-22-----2-2-2-----2-22-------------------------------|-------2-|
[ Tab from: http://www.guitartabs.cc/tabs/s/scorpions/but_the_best_for_you_btab.html ]
Chorus:
G|------------------|-----------------------------------|
D|------------------|-----------------000---------------|
A|------------------|-222-----00022222------------222-0-|
E|-3333333222222222-|----00000-----------000002222---2--|

Bridge:
G|-----------------------------|
D|-----------------000000002>>-|
A|-----------------------------|
E|-3333333322222222------------|
Comments