Scorpions - Borderline Chords & Tabs

 

Borderline Chords & Tabs

Scorpions Chords & Tabs

Version: 1 Type: Tab 0 ratings
1 star 2 stars 3 stars 4 stars 5 stars
comments

Borderline Tab

SCORPIONS
Unbreakable
Borderline  tab 



Intro synthé :

E-----11--12--11-------|--------------------------I
B-10--------------12---|--------------------------I
G----------------------|--2-----------------------I
D----------------------|-----1----1--2--1---------I
A----------------------|---------------------2----I
E----------------------|--------------------------I

Intro  guitare 1.
E-------------------------------------I
B-------------------------------------I
G---11----8-----8-8----6--------------I
D---11----8-----8-8----6--------------I
A---9-----6-----6-6----4--------------I
E-------------------------------------I
Jouer l'intro dix fois.


Intro solo guitare 2.
E-----------------------------------------------------------I
B-----------------------------------------------------------I
G-1/-3-1-0-1-0-1-0-------------1/-3-1--0-1-0-1-0------1/-6--I
D--------------------1---1----------------------------------I 
A---------------------------4-------------------------------I
E-----------------------------------------------------------I
Jouer le solo deux fois.

[ Tab from: http://www.guitartabs.cc/tabs/s/scorpions/borderline_tab.html ]
It takes power to walk in our shoes ...
Riff 1
E--------------------------------------------------------I
B--------------------------------------------------------I
G--11-9--8--6----11-9--11----11-9—11-----11--9-----------I
D--11-9--8--6----11-9--11----11-9-11-----11-—9-----------I
A--9--7--6--4----9--7--9-----9--7-9------9---7-----------I
E--------------------------------------------------------I

We walk the borderline ...
Riff 2

E-----------------------------------I
B-----------------------------------I
G-----------------------------------I
D--12----9----9-9---7---------------I
A--12----9----9-9---7---------------I
E--10----7----7-7---5---------------I
Jouer le riff  quatre fois.

*Guitare 1 répète l'intro 6  fois et guitare 2 répète le solo une fois. 

*Répéter  le riff 1 suivit du riff 2  sept fois.


Another day around the corner ...
Riff 3

E------------------I
B------------------I
G---11-------------I
D---11--------9----I
A---9---------9----I
E-------------7----I
Répéter le riff  trois fois.

puis...


E----------------------------------------------------------I
B----------------------------------------------------------I
G----------------------------------------------------------I
D---4----8----9-----11----------4---8----999999999999999---I
A---4----8----9-----11----------4---8----999999999999999---I
E---2----6----7-----9-----------2---6----777777777777777---I

*répéter l'intro pendant le solo...
Comments