Scorpions - Big City Nights Chords & Tabs

 

Big City Nights Chords & Tabs

Scorpions Chords & Tabs

Version: 5 Type: Tab 0 ratings
1 star 2 stars 3 stars 4 stars 5 stars
comments

Big City Nights Tab

   
Intro (rhythm)(play 4 times):
E---------------------------------------------------------------------------|
B---------------------------------------------------------------------------|
G---------------------------------------------------------------------------|
D---------10-10-9-7-5-----------5-5-5-5-5-----------------------------------|
A-7-7-8-7-8--8--7-5-3-5-5-7-5-7-3-3-3-3-3-5---------------------------------|
E-5-5-5-5-------------3-3-3-3-3-----------3---------------------------------|

Intro (lead) (play once):
E----------------5-3-------------------------5-3----------------------------|
B-------5-3----------3-5-------------5-3---------5-3------------------------|
G-----2------5-2---------5-2-------2-----5-2---------5-2--------------------|
D-2-5------------------------5-2-5-----------------------5------------------|
A---------------------------------------------------------------------------|
E---------------------------------------------------------------------------|

Verse 1:
 Am        F        C        D        Am       F        C        Em
E---------------------------------------------------------------------------|
B---------------------------------------------------------------------------|
G---------------------------------------------------------------------------|
D-------------------5-5-5-5--7-7-7-7--------------------5-5-5-5--9-9-9-9----|
A-7-7-7-7--3-3-3-3--3-3-3-3--5-5-5-5--7-7-7-7--3-3-3-3--3-3-3-3--7-7-7-7----|
E-5-5-5-5--1-1-1-1--------------------5-5-5-5--1-1-1-1----------------------|

Verse 1 (continued):
  Am       F        C        D        Am       F        C        Em
E---------------------------------------------------------------------------|
B---------------------------------------------------------------------------|
G---------------------------------------------------------------------------|
D-------------------5-5-5-5--7-7-7-7--------------------5-5-5-5--9-9-9-9-9--|
A-7-7-7-7--3-3-3-3--3-3-3-3--5-5-5-5--7-7-7-7--3-3-3-3--3-3-3-3--7-7-7-7-7--|
E-5-5-5-5--1-1-1-1--------------------5-5-5-5--1-1-1-1----------------------|

Chorus:
  Am      F      Em D  C  G          C          G
E---------------------------------------------------------------------------|
B---------------------------------------------------------------------------|
G---------------------------------------------------------------------------|
D---------10-10--9--7--5-------------5-5-5-5-5------------------------------|
A-7-7-8-7-8--8---7--5--3--5-5-7-5-7--3-3-3-3-3--5---------------------------|
E-5-5-5-5-----------------3-3-3-3-3-------------3---------------------------|

Chorus (continued):
  Am      F      Em D  C  G          C          G
E---------------------------------------------------------------------------|
B---------------------------------------------------------------------------|
G---------------------------------------------------------------------------|
D---------10-10--9--7--5-------------5-5-5-5-5------------------------------|
A-7-7-8-7-8--8---7--5--3--5-5-7-5-7--3-3-3-3-3--5---------------------------|
E-5-5-5-5-----------------3-3-3-3-3-------------3---------------------------|

Verse 2:
E---------------------------------------------------------------------------|
B---------------------------------------------------------------------------|
G---------------------------------------------------------------------------|
D-------------------5-5-5-5--7-7-7-7--------------------5-5-5-5--9-9-9-9----|
A-7-7-7-7--3-3-3-3--3-3-3-3--5-5-5-5--7-7-7-7--3-3-3-3--3-3-3-3--7-7-7-7----|
E-5-5-5-5--1-1-1-1--------------------5-5-5-5--1-1-1-1----------------------|

Verse 2 (continued):
  Am       F        C        D        Am       F        C        Em
E---------------------------------------------------------------------------|
B---------------------------------------------------------------------------|
G---------------------------------------------------------------------------|
D-------------------5-5-5-5--7-7-7-7--------------------5-5-5-5--9-9-9-9-9--|
A-7-7-7-7--3-3-3-3--3-3-3-3--5-5-5-5--7-7-7-7--3-3-3-3--3-3-3-3--7-7-7-7-7--|
E-5-5-5-5--1-1-1-1--------------------5-5-5-5--1-1-1-1----------------------|

Chorus:
  Am      F      Em D  C  G          C          G
E---------------------------------------------------------------------------|
B---------------------------------------------------------------------------|
G---------------------------------------------------------------------------|
D---------10-10--9--7--5-------------5-5-5-5-5------------------------------|
A-7-7-8-7-8--8---7--5--3--5-5-7-5-7--3-3-3-3-3--5---------------------------|
E-5-5-5-5-----------------3-3-3-3-3-------------3---------------------------|

Chorus (continued):
  Am      F      Em D  C  G          C          G
E---------------------------------------------------------------------------|
B---------------------------------------------------------------------------|
G---------------------------------------------------------------------------|
D---------10-10--9--7--5-------------5-5-5-5-5------------------------------|
A-7-7-8-7-8--8---7--5--3--5-5-7-5-7--3-3-3-3-3--5---------------------------|
E-5-5-5-5-----------------3-3-3-3-3-------------3---------------------------|

Chorus:
  Am      F      Em D  C  G          C          G
E---------------------------------------------------------------------------|
B---------------------------------------------------------------------------|
G---------------------------------------------------------------------------|
D---------10-10--9--7--5-------------5-5-5-5-5------------------------------|
A-7-7-8-7-8--8---7--5--3--5-5-7-5-7--3-3-3-3-3--5---------------------------|
E-5-5-5-5-----------------3-3-3-3-3-------------3---------------------------|
[ Tab from: http://www.guitartabs.cc/tabs/s/scorpions/big_city_nights_tab_ver_5.html ]
Chorus (continued):
  Am       F       Em  D   C   G      C          G  C
E---------------------------------------------------------------------------|
B---------------------------------------------------------------------------|
G---------------------------------------------------------------------------|
D----------10-10--9--7--5-------------5-5-5-5-5-----5-5-5-5-5---------------|
A-7-7-8-7--8--8---7--5--3--5-5-7-5-7--3-3-3-3-3--5--3-3-3-3-3---------------|
E-5-5-5-5------------------3-3-3-3-3-------------3--------------------------|

Bridge:
  Em G  C  ?? Em G  C  D
E----------x----------------------------------------------------------------|
B----------3----------------------------------------------------------------|
G----------0----------------------------------------------------------------|
D-------5--0--------5--7----------------------------------------------------|
A-2--5--3--0--2--5--3--5----------------------------------------------------|
E-0--3-----2--0--3----------------------------------------------------------|

Rhythm during solo (played twice, then changes to another chord chord progression):
  Am      F      Em D  C  G          C          G
E---------------------------------------------------------------------------|
B---------------------------------------------------------------------------|
G---------------------------------------------------------------------------|
D---------10-10--9--7--5-------------5-5-5-5-5------------------------------|
A-7-7-8-7-8--8---7--5--3--5-5-7-5-7--3-3-3-3-3--5---------------------------|
E-5-5-5-5-----------------3-3-3-3-3-------------3---------------------------|

Chorus:
  Am      F      Em D  C  G          C          G
E---------------------------------------------------------------------------|
B---------------------------------------------------------------------------|
G---------------------------------------------------------------------------|
D---------10-10--9--7--5-------------5-5-5-5-5------------------------------|
A-7-7-8-7-8--8---7--5--3--5-5-7-5-7--3-3-3-3-3--5---------------------------|
E-5-5-5-5-----------------3-3-3-3-3-------------3---------------------------|

Chorus (continued):
  Am      F      Em D  C  G          C          G
E---------------------------------------------------------------------------|
B---------------------------------------------------------------------------|
G---------------------------------------------------------------------------|
D---------10-10--9--7--5-------------5-5-5-5-5------------------------------|
A-7-7-8-7-8--8---7--5--3--5-5-7-5-7--3-3-3-3-3--5---------------------------|
E-5-5-5-5-----------------3-3-3-3-3-------------3---------------------------|

Chorus:
  Am      F      Em D  C  G          C          G
E---------------------------------------------------------------------------|
B---------------------------------------------------------------------------|
G---------------------------------------------------------------------------|
D---------10-10--9--7--5-------------5-5-5-5-5------------------------------|
A-7-7-8-7-8--8---7--5--3--5-5-7-5-7--3-3-3-3-3--5---------------------------|
E-5-5-5-5-----------------3-3-3-3-3-------------3---------------------------|

Chorus (continued):
  Am       F       Em  D   C   G      C          G  C
E---------------------------------------------------------------------------|
B---------------------------------------------------------------------------|
G---------------------------------------------------------------------------|
D----------10-10--9--7--5-------------5-5-5-5-5-----5-5-5-5-5---------------|
A-7-7-8-7--8--8---7--5--3--5-5-7-5-7--3-3-3-3-3--5--3-3-3-3-3---------------|
E-5-5-5-5------------------3-3-3-3-3-------------3--------------------------|

Chorus:
  Am      F      Em D  C  G          C          G
E---------------------------------------------------------------------------|
B---------------------------------------------------------------------------|
G---------------------------------------------------------------------------|
D---------10-10--9--7--5-------------5-5-5-5-5------------------------------|
A-7-7-8-7-8--8---7--5--3--5-5-7-5-7--3-3-3-3-3--5---------------------------|
E-5-5-5-5-----------------3-3-3-3-3-------------3---------------------------|

Chorus (continued):
  Am       F       Em  D   C   G      C          G  C
E---------------------------------------------------------------------------|
B---------------------------------------------------------------------------|
G---------------------------------------------------------------------------|
D----------10-10--9--7--5-------------5-5-5-5-5-----5-5-5-5-5---------------|
A-7-7-8-7--8--8---7--5--3--5-5-7-5-7--3-3-3-3-3--5--3-3-3-3-3---------------|
E-5-5-5-5------------------3-3-3-3-3-------------3--------------------------|

Chorus:
  Am      F      Em D  C  G          C          G
E---------------------------------------------------------------------------|
B---------------------------------------------------------------------------|
G---------------------------------------------------------------------------|
D---------10-10--9--7--5-------------5-5-5-5-5------------------------------|
A-7-7-8-7-8--8---7--5--3--5-5-7-5-7--3-3-3-3-3--5---------------------------|
E-5-5-5-5-----------------3-3-3-3-3-------------3---------------------------|

Chorus (continued):
  Am       F       Em  D   C   G      C          G  C
E---------------------------------------------------------------------------|
B---------------------------------------------------------------------------|
G---------------------------------------------------------------------------|
D----------10-10--9--7--5-------------5-5-5-5-5-----5-5-5-5-5---------------|
A-7-7-8-7--8--8---7--5--3--5-5-7-5-7--3-3-3-3-3--5--3-3-3-3-3---------------|
E-5-5-5-5------------------3-3-3-3-3-------------3--------------------------|
Comments