Scorpions - Big City Nights Chords & Tabs

 

Big City Nights Chords & Tabs

Scorpions Chords & Tabs

Version: 1 Type: Tab 1 rating
1 star 2 stars 3 stars 4 stars 5 stars
comments

Big City Nights Tab

THIS SONG ROCKS EVERYBODY SHOULD KNOW IT


----------------------------------------------------------------------------------------------------------
-------------------------------------------------------------------------------------------8---8---8--8--8---8-----
---------------------------------------------------------------------------------------5------5--5--5--5---4------
----------------------------------------10-----10---9----7---5----------------------------------------------
---------4------4-------5----4-------8------8-----7---5----3------4---4-----5--4----------------------------
------2-------2------2-----2------------------------------------2----2----2---2------------------------------
THATS THE INTRO AND THE CHORUS

[ Tab from: http://www.guitartabs.cc/tabs/s/scorpions/big_city_nights_tab.html ]
--------------------------------------------------------------------------------------
--------------------------------------------------------------------------------------
--------------------------------------------------------------------------------------
----------------------------------------5----6TIMES-------7----6TIMES-------------------------------
----7----6TIMES-------3---6TIMES-----3-----------------5----------------------------------------------
-5------------------1-------------------------------------------------------------------

PLAY THAT PALM MUTED

-----------------------------------------------------------------------------------------
------------------------------------------------------------------------------------------
---------------------------------------------------------------------------------------------
--------------------------------------5----6TIMES--------7--6TIMES------9--6TIMES--------------------------------
----7---6TIMES------3---6TIMES-----3------------------5---------------7---------------------------------------
-5---------------1------------------------------------------------------------------------------
THAT IS ALSO MUTED. THEN JUST PLAY IT AGAIN WITHOUT MUTING IT .DURING THE SOLO ITS JUST THE INTRO AND THE VERSE.
IF YOU LISTEN TO THE SONG YOU SHOULD BE ABLE TO FIGURE OUT THE TIMEING 
AND EVERYTHING ELSE.THIS IS 100% RIGHT SO USE IT. LATES



Comments