Scorpions - Always Somewhere Chords & Tabs

 

Always Somewhere Chords & Tabs

Scorpions Chords & Tabs

Version: 5 Type: Tab 0 ratings
1 star 2 stars 3 stars 4 stars 5 stars
comments

Always Somewhere Tab

   
ame:Always somewhere
Album:Acoustica/Lovedrive
Artist:Scorpions
Tabed by:Chris Kapellos,13,Greek

The lovedrive version is almost the same with the acoustica but differs
in the solo. So the intro is the same,but in the acoustica version
the second guitar doesn't play the solo indicated.So here it is:

^(1)=bend up one step
^(1)^=bend up one step and release
<=pull-off
>=hammer-on
^(1)<=bend up one step,release and pull-off to the fret indicated
\=slide(the second note is not struck)
~=the string is vibrated


INTRO

Riff A
e ------------3--3--3-0---0-----0--0-|
b ----1--1--0--0--0----3---3-----1---|
g -----0--0-----0--0----2---0-----2--|
d ------2--2---------3---2-----------|
a -023-----------------------0-------|
e -----------3-----------------------|


The first guitar plays Riff A while the second guitar after four times
plays:

e --------------------------------------------------------------------|
b --------------------------------------------------------------------|
g ---7^(1)~--5^(1)~-----5\4\5-----------7^(1)~--5^(1)~---------10-----|(1)
d ----------------------------7---------------------------------------|
a --------------------------------------------------------------------|
e --------------------------------------------------------------------|

VERSE

The first guitar plays Riff A but this part is added after the
end of it:

e ------------3--3--3-0--0--0--0--0-|
b ----1--1--0--3--3----1--1--1--1---|
g -----0--0-----0--0----2--2--2--2--|
d ------2--2---------0--------------|
a -023------------------------------|
e -----------3----------------------|

So first guitar plays :

Riff B

e ------------3--3--3-0---0-----0--0-|
b ----1--1--0--0--0----3---3-----1---|
g -----0--0-----0--0----2---0-----2--|
d ------2--2---------3---2-----------|
a -023-----------------------0-------|
e -----------3-----------------------|

e ------------3--3--3-0--0--0--0--0-|
b ----1--1--0--3--3----1--1--1--1---|
g -----0--0-----0--0----2--2--2--2--|
d ------2--2---------0--------------|
a -023------------------------------|
e -----------3----------------------|

The whole is played for 4 times and afterwards the second guitar plays
this, while the first plays Riff A for 2 times:

e ---15<13<12~----13<12<10~------578--75\4\5~---------|
b ----------------------------------------------------|
g ----------------------------------------------------|
d ----------------------------------------------------|
a ----------------------------------------------------|
e ----------------------------------------------------|

e ---15<13<12~----13<12<10~---15^(1)-----15^(1)15 12>13<12-|
b ---------------------------------------------------------|
g ---------------------------------------------------------|
d ---------------------------------------------------------|
a ---------------------------------------------------------|
e ---------------------------------------------------------|

[ Tab from: http://www.guitartabs.cc/tabs/s/scorpions/always_somewhere_tab_ver_5.html ]
In the acoustica version this solo is like this:

e ---15<13<12~----13<12<10~------578--7<5-------------|
b ---------------------------------------6^(1)--------|
g ----------------------------------------------------|
d ----------------------------------------------------|
a ----------------------------------------------------|
e ----------------------------------------------------|

e ---15<13<12~----13<12<10~---15^(1)-----15^(1)15 12>13<12-|
b ---------------------------------------------------------|
g ---------------------------------------------------------|
d ---------------------------------------------------------|
a ---------------------------------------------------------|
e ---------------------------------------------------------|

The first guitar continues playing Riff B for 4 times.

CHORUS

e ------------------------------5-5-553-|
b ------------------------------5-5-553-|
g -5------------------------------------|
d -5--------5---------7-----------------|
a -3--------5---------7-----------------|
e ----------3---------5-----------------|

     Always somewhere miss you where i've been
e -------------------------------------|
b -------------------------------------|
g ----------------------------5--------|
d --3--------5----------------5------5-|
a --3--------5----------------3------5-|
e --1--------3-----------------------3-|

     I'll be back to love you again


This is played for 2 times.

SOLO

After the chorus the first guitar plays Riff A for 4 times while the
second plays this solo:

e -------------------------------------------------------------|
b -------------------------------------------------------------|
g --9~---7~-----47---7^(1)7<5\4\5>7----7-7^(0.5)--7^(0.5)75----|
d ---------------------------------7~79-9------------------7~--|
a -------------------------------------------------------------|
e -------------------------------------------------------------|

e----------------------12-15-15^(1)-15^(1)-15-13-12--5788^(1)875------|
 ---------------------------------------------------------------8-----|(1)
g -7^(0.5)7<5-575-----------------------------------------------------|
d -----------7---7----------------------------------------------------|
a --------------------------------------------------------------------|
e --------------------------------------------------------------------|

e ---------------------------------------------------|
b -10-12-13^(1)-13^(1)13--10----15^(1)--15^(1)15-----|
g -----------------------------------------------14~-|
d ---------------------------------------------------|
a ---------------------------------------------------|
e ---------------------------------------------------|


After the solo the first guitar plays Riff B for 4 times and then the chorus.
The song ends by playing 2 times Riff A.

I wish it's O.K.I know that the solo is not exactly the same but it's
very close to it.For any suggestions , corrections please let me know
at Yamahaerg_121_4@yahoo.com
Comments