Scorpions - Alien Nation Chords & Tabs

 

Alien Nation Chords & Tabs

Scorpions Chords & Tabs

Version: 4 Type: Tab 0 ratings
1 star 2 stars 3 stars 4 stars 5 stars
comments

Alien Nation Tab

   
This is all the rhythm parts. I'm doing this tab because everyone elses is wrong. Has
anyone else noticed that. I can't do the solo, it's crazy. If someone can do it, I'd
shake their hand. Until then, I hope you'll be satisfied with the real tabs for Alien
Nation.

Tuning: Half Step Down [Eb,Bb,Gb,Db,Ab,Eb]

Intro:
Gtr. 1 (Play 4 times)
Eb|----------------|----------------|----------------|----------------|
Bb|----------------|----------------|----------------|----------------|
Gb|----------------|----------------|----------------|----------------|
Db|-----10--9v-----|----------------|-----10--9v-----|---------12-14--|
Ab|-7-----------7--|-10-9-7--12--10-|-7-----------7--|-10-9-7--10-12--|
Eb|-0--------------|---------10---8-|-0--------------|----------------|

Gtr. 2 (Begins after Gtr. 1 plays Intro once)
Eb|----------------|----------------|----------------|----------------|
Bb|----------------|----------------|----------------|----------------|
Gb|----------------|----------------|----------------|----------------|
Db|-2~-------------|----------------|-2~-------------|----------------|
Ab|-2~-------------|----------------|-2~-------------|----------------|
Eb|-0~-------------|----------------|-0~-------------|----------------|
  ...then Gtr.2 plays
Eb|----------------|----------------|----------------|----------------|
Bb|----------------|----------------|----------------|----------------|
Gb|----------------|----------------|----------------|----------------|
Db|-2-2-2-2-2-2-2-2|-2-2-2-2-2-2-2-2|-2-2-2-2-2-2-2-2|-2-2-2-2-2-2-2-2|
Ab|-2-2-2-2-2-2-2-2|-2-2-2-2-2-2-2-2|-2-2-2-2-2-2-2-2|-2-2-2-2-2-2-2-2|
Eb|-0-0-0-0-0-0-0-0|-0-0-0-0-0-0-0-0|-0-0-0-0-0-0-0-0|-0-0-0-0-0-0-0-0|
pm ...................................................................

Eb|----------------|----------------|----------------|----------------|
Bb|----------------|----------------|----------------|----------------|
Gb|----------------|----------------|----------------|----------------|
Db|-2-2-2-2-2-2-2-2|-2-2-2-2-2-2-2-2|-2-2-2-2-2-2-2-2|-2-2-2-2--5--7--|
Ab|-2-2-2-2-2-2-2-2|-2-2-2-2-2-2-2-2|-2-2-2-2-2-2-2-2|-2-2-2-2--5--7--|
Eb|-0-0-0-0-0-0-0-0|-0-0-0-0-0-0-0-0|-0-0-0-0-0-0-0-0|-0-0-0-0--3--5--|
pm ...........................................................

Fill before Verse:
Gtr. 1
Eb|----------------|-----------------------|
Bb|----------------|-----------------------|
Gb|----------------|-----------------------|
Db|-22222222--5--7-|-2222222-5-5-5-5--5--7-|
Ab|-22222222--5--7-|-2222222-5-5-5-5--5--7-|
Eb|-00000000--3--5-|-0000000-3-3-3-3--3--5-|
pm .........         ...............

Eb|----------------|----------------------------------|
Bb|----------------|----------------------------------|
Gb|----------------|----------------------------------|
Db|-22222222--5--7-|-2222222-5-5-5-5--7-8-7-5-7-8-7-5-|
Ab|-22222222--5--7-|-2222222-5-5-5-5--7-8-7-5-7-8-7-5-|
Eb|-00000000--3--5-|-0000000-3-3-3-3--5-6-5-3-5-6-5-3-|
pm .........         ...............

[ Tab from: http://www.guitartabs.cc/tabs/s/scorpions/alien_nation_tab_ver_4.html ]
Gtr. 2
Eb|----------------|----------------------------------|
Bb|----------------|----------------------------------|
Gb|----------------|----------------------------------|
Db|---------12--14-|----------------------------------|
Ab|---------10--12-|----------------------------------|
Eb|----------------|----------------------------------|

Eb|----------------|----------------------------------|
Bb|----------------|----------------------------------|
Gb|----------------|----------------------------------|
Db|---------12--14-|----------------------------------|
Ab|---------10--12-|----------------------------------|
Eb|----------------|----------------------------------|

Verse: (Played 8 times the first time, then 4 times the second time)
Gtr. 1
Eb|----------------|----------------|
Bb|----------------|----------------|
Gb|----------------|----------------|
Db|-4~-------------|-4~-------------|
Ab|-4~-------------|-4~-------------|
Eb|-2~-------------|-2~-------------|

Gtr. 2
Eb|----------------|----------------|
Bb|----------------|----------------|
Gb|----------------|----------------|
Db|11-11-1111-11-12|11--11-12-11-9--|
Ab|-9--9--9-9--9--9|-9---9--9--9-9--|
Eb|----------------|----------------|

Pre-Chorus: ("In the city of angels...")
Both Gtrs play this twice
Eb|----------------|----------------|----------------|----------------|
Bb|----------------|----------------|----------------|----------------|
Gb|----------------|----------------|----------------|----------------|
Db|-7-7-7-7-7-7-7-7|-5-5-5-5-5-5-5-5|-7-7-7-7-7-7-7-7|-3~-----5~------|
Ab|-7-7-7-7-7-7-7-7|-5-5-5-5-5-5-5-5|-7-7-7-7-7-7-7-7|-3~-----5~------|
Eb|-5-5-5-5-5-5-5-5|-3-3-3-3-3-3-3-3|-5-5-5-5-5-5-5-5|-1~-----3~------|

Chorus: 
Gtr. 1
Eb|----------------|----------------|----------------|----------------|
Bb|----------------|----------------|----------------|----------------|
Gb|----------------|----------------|----------------|----------------|
Db|-----10--9v-----|----------------|-----10--9v-----|---------12-14--|
Ab|-7-----------7--|-10-9-7--12--10-|-7-----------7--|-10-9-7--10-12--|
Eb|-0--------------|---------10---8-|-0--------------|----------------|

Gtr. 2
Eb|----------------|----------------|----------------|----------------|
Bb|----------------|----------------|----------------|----------------|
Gb|----------------|----------------|----------------|----------------|
Db|-2-2-2-2-2-2-2-2|-2-2-2-2-2-2-2-2|-2-2-2-2-2-2-2-2|-2-2-2-2-2-2-2-2|
Ab|-2-2-2-2-2-2-2-2|-2-2-2-2-2-2-2-2|-2-2-2-2-2-2-2-2|-2-2-2-2-2-2-2-2|
Eb|-0-0-0-0-0-0-0-0|-0-0-0-0-0-0-0-0|-0-0-0-0-0-0-0-0|-0-0-0-0-0-0-0-0|
pm ...................................................................

Eb|----------------|----------------|----------------|----------------|
Bb|----------------|----------------|----------------|----------------|
Gb|----------------|----------------|----------------|----------------|
Db|-2-2-2-2-2-2-2-2|-2-2-2-2-2-2-2-2|-2-2-2-2-2-2-2-2|-2-2-2-2--5--7--|
Ab|-2-2-2-2-2-2-2-2|-2-2-2-2-2-2-2-2|-2-2-2-2-2-2-2-2|-2-2-2-2--5--7--|
Eb|-0-0-0-0-0-0-0-0|-0-0-0-0-0-0-0-0|-0-0-0-0-0-0-0-0|-0-0-0-0--3--5--|
pm ...........................................................

Outro:
Gtr. 1
Eb|----------------|----------------|
Bb|----------------|----------------|
Gb|----------------|----------------|
Db|-22222222--5--7-|-2222222-5-5-2--|
Ab|-22222222--5--7-|-2222222-5-5-2--|
Eb|-00000000--3--5-|-0000000-3-3-0--|
pm .........         .............

Gtr. 2
Eb|----------------|----------------|
Bb|----------------|----------------|
Gb|----------------|----------------|
Db|---------12--14-|----------------|
Ab|---------10--12-|----------------|
Eb|----------------|----------------|
Comments