Scooter - Fire Chords & Tabs

 

Fire Chords & Tabs

Scooter Chords & Tabs

Version: 2 Type: Tab 0 ratings
1 star 2 stars 3 stars 4 stars 5 stars
comments

Fire Tab

Artist:Scooter
Song: Fire
Album:Mortal Kombat ANNIHILATION Soundtrack
Tabbed By: Kommon (Faimilyval@aol.com)




intro
----------------------------------------------------------------------
----------------------------------------------------------------------
----------------------------------------------------------------------
----------------------------------------------------------------------
-3-2-3-2-3-2-3-2--3-2-3-2-3-2-3-2-1-1-1-2-2-2-------------------------
-3-2-3-2-3-2-3-2--3-2-3-2-3-2-3-2-1-1-1-2-2-2-------------------------
[ Tab from: http://www.guitartabs.cc/tabs/s/scooter/fire_tab_ver_2.html ]
intro contiued
----------------------------------------------------------------------
----------------------------------------------------------------------
----------------------------------------------------------------------
----------------------------------------------------------------------
-3-2-3-2-3-2-3-2--3-2-3-2-3-2-3-2-1-----------------------------------
-3-2-3-2-3-2-3-2--3-2-3-2-3-2-3-2-1-----------------------------------

chorus

----------------------------------------------------------------------
----------------------------------------------------------------------
----------------------------------------------------------------------
----------------------------------------------------------------------
-3-2-3-2-3-2-3-2--3-2-3-2-3-2-3-2-1-1-1-2-2-2-------------------------
-3-2-3-2-3-2-3-2--3-2-3-2-3-2-3-2-1-1-1-2-2-2-------------------------

the verse are played with a keyboard but screwing around on the e string
and the f for the people who have 7 strings will give it the same sound
Comments