Scofield John - Boozer Chords & Tabs

 

Boozer Chords & Tabs

Scofield John Chords & Tabs

Version: 1 Type: Tab 0 ratings
1 star 2 stars 3 stars 4 stars 5 stars
comments

Boozer Tab

   
John Scofield 
Boozer
A Go-Go
tabbed by: Mitch Bonkowski

im pretty sure of the single note lines being correct.
the chords may be off by a note or two, experiment a lil if u don't find it to sound
right. i dont know if i got the full chord progression in the solo, but its right for 
the organ part.  but anyhow, this is another great song by john scofield, hope it helps.

main riff

e[---------4-6--6b(7)6----------------------------------------------------------
b[----5-6---------------8\7---5-----5-------------------------------------------
g[-6----------------------------6-----6\5---5\4-2-------------------------------
d[-------------------------------------------------4----------------------------
a[------------------------------------------------------------------------------
e[------------------------------------------------------------------------------

e[--5-5-5----5--4-5-5-5-5-------------------------------------------------------
b[--4-4-4----4--3-4-4-4-4-------------------------------------------------------
g[--2-2-2----2--1-2-2-2-2-------------------------------------------------------
d[------------------------------------------------------------------------------
a[------------------------------------------------------------------------------
e[------------------------------------------------------------------------------
part b
e[------------------------------------------------------------------------------
b[------------------------------------------------------------------------------
g[-5-8--6--6--6/8----8-8--6--6--4/5---5-8--6--6-6/8---8-8-8--9--9---------------
d[------------------------------------------------------------------------------
a[------------------------------------------------------------------------------
e[------------------------------------------------------------------------------

or
[ Tab from: http://www.guitartabs.cc/tabs/s/scofield_john/boozer_tab.html ]
e[------------------------------------------------------------------------------
b[----4------2/4----4-4-----------------4---------2/4---4-4-4-5-5---------------
g[-/5---6-6--------------6---6--4/5--/5----6--6---------------------------------
d[------------------------------------------------------------------------------
a[------------------------------------------------------------------------------
e[------------------------------------------------------------------------------

e[-3--3---3-2-3-3-3-------------------------------------------------------------
b[-2--2---2-1-2-2-2-------------------------------------------------------------
g[-2--2---2-1-2-2-2-------------------------------------------------------------
d[------------------------------------------------------------------------------
a[------------------------------------------------------------------------------
e[------------------------------------------------------------------------------
solo rythm guitar chord progression
   A (dim 5)    C# 9   D9   E
e[---5--------------------------------------------------------------------------
b[---4-----------4------5---5---------------------------------------------------
g[---2-----------4------5---4---------------------------------------------------
d[---------------3------4-------------------------------------------------------
a[---------------4------5-------------------------------------------------------
e[------------------------------------------------------------------------------
outro riff

e[--11b12-----------------------------------------------------------------------
b[------------------11-11-11-11-------------------------------------------------
g[------------------9--9---9--9-------------------------------------------------
d[---------8--5\3---------------------------------------------------------------
a[------------------------------------------------------------------------------
e[------------------------------------------------------------------------------


please email with corrections,comments, or anything dealing with scofield i guess.
spoonman162@yahoo.com

-mitch bonkowski 2004
Comments