Scissor Sisters - Tits On The Radio Chords & Tabs

 

Tits On The Radio Chords & Tabs

Scissor Sisters Chords & Tabs

Version: 1 Type: Bass Tab 0 ratings
1 star 2 stars 3 stars 4 stars 5 stars
comments

Tits On The Radio Bass Tab

This is a funky song. You have to keep your fingers moving at a fast steady pace.

Intro

G----------------------------------------------------|
D---------------------5------------------------------|	x3
A-----7----7----5-7-------7----7----5--5-------------|
E--0----0----0----------0----0----0------------------|

Verse

G----------------------------------------------------|
D---------------------5------------------------------|	x3
A-----7----7----5-7-------7----7----5--5-------------|
E--0----0----0----------0----0----0------------------|

(x2) Play the second half of verse below twice
G---------------------5--------------------------------------5-----7----5----3----2|
D-----7----7----5-7-------7----7----55-------7----7----5-7------------------------|
A--0----0----0----------0----0----0------------0----0----0------5----3----1----0---|
E----------------------------------------------------------------------------------|
[ Tab from: http://www.guitartabs.cc/tabs/s/scissor_sisters/tits_on_the_radio_btab.html ]
G---------------------------------------------------|
D--------------------5------------------------------|	x2
A-----7----7----5-7------7----7----5--5-------------|
E--0----0----0---------0----0----0------------------|

Chorus

G-----2----2----2----4----5----5----5--|
D--------------------------------------|
A--0----0----0----2----3----3----3-----|
E--------------------------------------|


G----------------------------------------------|
D---6----5----5----5----5----3----3----3----5--|
A----------------------------------------------|  x4
E--4----3----3----3----3----1----1----1----3---|

End Chorus (the same as the main chorus)

G-----2----2----2----4----5----5----5--|
D--------------------------------------|
A--0----0----0----2----3----3----3-----|
E--------------------------------------|


G----------------------------------------------|
D---6----5----5----5----5----3----3----3----5--| x2
A----------------------------------------------|
E--4----3----3----3----3----1----1----1----3---|

Intro
Verse
Chorus
Verse
Chorus x2
End chorus


This is my first tab, I everything ok but if you see any mistakes please email me at
katie.steed@blueyonder.co.uk. You know the deal.
Comments