Scissor Sisters - Take Your Mama Chords & Tabs

 

Take Your Mama Chords & Tabs

Scissor Sisters Chords & Tabs

Version: 4 Type: Tab 0 ratings
1 star 2 stars 3 stars 4 stars 5 stars
comments

Take Your Mama Tab

   
-------------------------------------------------------------------------------
			     Take Your Mama - Scissor Sisters
-------------------------------------------------------------------------------
Tabbed by:Natalie
Email: natalieinnes874@hotmail.com
Tuning: Tune 1/2 step down (Eb,Ab,Db,Gb,Bb,Eb)
This song is quality so i thought i'd tab it out properly. I'm pretty sure
this is 100% accurate but I'm only 15 so any corrections are welcome! Happy
Playing!

Intro 2x (acoustic guitar only first then lead comes in on second time)

e|-7-7-x-x-7-x-x-x-x-7-7---7--5-5-x-x-5-x-x-5-x-5-5---5---------------------|
B|-7-7-x-x-7-x-x-x-x-7-7---7--5-5-x-x-5-x-x-5-x-5-5---5---------------------|
G|-8-8-x-x-8-x-x-x-x-8-8h9-8--6-6-x-x-6-x-x-6-x-6-6h7-6---------------------|
D|-9-9-x-x-9-x-x-x-x-9-7---7--7-7-x-x-7-x-x-7-x-7-5---5---------------------|
A|-9-9-x-x-9-x-x-x-x-9-9---9--7-7-x-x-7-x-x-7-x-7-7---7---------------------|
E|-7-7-x-x-7-x-x-x-x-7-7---7--5-5-x-x-5-x-x-5-x-5-5---5---------------------|

e|-4-4-x-x-4-x-x-4-x-4-4---4--7-7-x-x-7-x-x-x-x-7-7-7-7---------------------|
B|-5-5-x-x-5-x-x-5-x-5-5h6-5--7-7-x-x-7-x-x-x-x-7-7---7---------------------|
G|-6-6-x-x-6-x-x-6-x-6-4---6--8-8-x-x-8-x-x-x-x-8-8h9-8---------------------|
D|-6-6-x-x-6-x-x-6-x-6-6---6--9-9-x-x-9-x-x-x-x-9-7---7---------------------|
A|-4-4-x-x-4-x-x-4-x-4-4---4--9-9-x-x-9-x-x-x-x-9-9---9---------------------|
E|----------------------------7-7-x-x-7-x-x-x-x-7-7---7---------------------|

Verse 2x (both guitars)

e|-x-7-x-7-x-7-7-7-7-7-7---7--x-5-x-5-x-5-5-5-5-5-5---5---------------------|
B|-x-7-x-7-x-7-7-7-7-7-7---7--x-5-x-5-x-5-5-5-5-5-5---5---------------------|
G|-x-8-x-8-x-8-8-8-8-8-8h9-8--x-6-x-6-x-6-6-6-6-6-6h7-6---------------------|
D|-x-9-x-9-x-9-9-9-9-9-7---7--x-7-x-7-x-7-7-7-7-7-5---5---------------------|
A|-x-9-x-9-x-9-9-9-9-9-9---9--x-7-x-7-x-7-7-7-7-7-7---7---------------------|
E|-x-7-x-7-x-7-7-7-7-7-7---7--x-5-x-5-x-5-5-5-5-5-5---5---------------------|

e|-x-4-x-4-x-4-4-4-4-4-4---4--x-7-x-7-x-7-7-7-7-7-7---7---------------------|
B|-x-5-x-5-x-5-5-5-5-5-5h6-5--x-7-x-7-x-7-7-7-7-7-7---7---------------------|
G|-x-6-x-6-x-6-6-6-6-6-4---6--x-8-x-8-x-8-8-8-8-8-8h9-8---------------------|
D|-x-6-x-6-x-6-6-6-6-6-6---6--x-9-x-9-x-9-9-9-9-9-7---7---------------------|
A|-x-4-x-4-x-4-4-4-4-4-4---4--x-9-x-9-x-9-9-9-9-9-9---9---------------------|
E|----------------------------x-7-x-7-x-7-7-7-7-7-7---7---------------------|

Bridge 2x

e|--------------------------------------------------------------------------|
B|-5---5---5---5------------------------------------------------------------|
G|-6---4---3---3-------8--8--8--8--8--8--8--8--8----------------------------|
D|-6---4---4---4-------9--9--9--9--9--9--9--9--9----------------------------|
A|-4---2---1-----------9--9--9--9--9--9--9--9--9----------------------------|
E|-------------2--2/-7-7--7--7--7--7--7--7--7--7----------------------------|

Chorus acoustic plays  chords B, A, E, B for 4 beats each and lead
 plays this riff twice

e|--bu--bd-------------------------------bu--bd-----------------------7-7-7-|
B|10--12--10--bu--bd-------------------10--12--10--bu--bd-------------7-7-7-|
G|-----------9--11--9-7----------7----------------9--11--9-7----------7-7-7-|
D|-----------------------9--9-7h9---9-------------------------9--9-7-9------|
A|--------------------------------------------------------------------------|
E|--------------------------------------------------------------------------|
[ Tab from: http://www.guitartabs.cc/tabs/s/scissor_sisters/take_your_mama_tab_ver_4.html ]
e|---bu--bd-----------------------------bu--bd-------------------------------|
B|-10--12--10--bu--bd-----------------10--12--10---bu-----------------bu-7---|
G|------------9--11--9-7---------7---------------9--11--9-7-------7-9-11--11-|
D|----------------------9--9-7h9---9-----------------------9--7h9------------|
A|---------------------------------------------------------------------------|
E|---------------------------------------------------------------------------|
then this twice

e|--------------------------------------5-5-5-5-5-5-5-5-5-5-----------------|
B|---------7-----10-10-10-10-10---------5-5-5-5-5-5-5-5-5-5-----------------|
G|---------7---9-11-11-11-11-11-9-7-----6-6-6-6-6-6-6-6-6-6-----------------|
D|-x-x-7-9---9----------------------9---7-7-7-7-7-7-7-7-7-7-----------------|
A|--------------------------------------------------------------------------|
E|--------------------------------------------------------------------------|

e|--------------------------------------------------7--7--6--6--------------|
B|----9-9-9-9--x-9-10-9-7-9-7-9--10-9---------------5--5--6--6--------------|
G|----9-9-9-9--x-9-11-9-7-9-7-9--11-9--7------------6--6--7--7--------------|
D|----9-9-9-9----------------------------9-x-x-9-9--5--5--8--8--------------|
A|----7-7-7-7------------------------------x-x-9-9--7--7--8--8--------------|
E|--0--------------------------------------x-x-7-7--5--5--6--6--------------|

Play intro once then Play verse through again

Pre Chorus 2 in the first 2 bars hold each chord for 2 notes this time instead
 of one (play twice)

e|--------------------------------------------------------------------------|
B|-5----5----5----5---------------------------------------------------------|
G|-6----4----3----3----8--8--x--8--x--8--8--8--8--8--8----------------------|
D|-6----4----4----4----9--9--x--9--x--9--9--9--9--9--9----------------------|
A|-4----2----1---------9--9--x--9--x--9--9--9--9--9--9----------------------|
E|----------------2----7--7--x--7--x--7--7--7--7--7--7----------------------|

Play Chorus through again
Solo bu  bd bu  bd             bu                           bu   bu
e|--9--11--9--11--9-7------7--9-10-7---------------------7-9-10-9--11--------|
B|---------------------10~-------------10--10---7-9-10-----------------------|
G|---------------------------------------------------------------------------|
D|---------------------------------------------------------------------------|
A|---------------------------------------------------------------------------|
E|---------------------------------------------------------------------------|

e|--7---bu----7------------------------------------------------------9------|
B|----10--12----10-9-7-9-7------------------7-9-12\-9-12-12/-16---11--------|
G|-------------------------7----------6-7-8---------------------------------|
D|---------------------------9------6---------------------------------------|
A|--------------------------------------------------------------------------|
E|--------------------------------------------------------------------------|

e|---po-------------------------------------------bu--------------bu--------|
B|-10--9----------------------------------12-14-14--16--14--12--15--17------|
G|-------11------po------------11--13--14-----------------------------------|
D|----------11-12--11-9-9~~\------------------------------------------------|
A|--------------------------------------------------------------------------|
E|--------------------------------------------------------------------------|

e|--12---bu--bd----------------------------12---po--------------------------|
B|-----15--17--15--14--12--14-----15-14-12----15--12---bu---12---bu---------|
G|----------------------------13---------------------14--16----14--16-------|
D|--------------------------------------------------------------------------|
A|--------------------------------------------------------------------------|
E|--------------------------------------------------------------------------|

Play Chorus again to end.


| /  slide up
| \  slide down
| h  hammer-on
| p  pull-off
| ~  vibrato
| +  harmonic
| x  Mute note
============================================================================
Comments