Scissor Sisters - Take Your Mama Chords & Tabs

 

Take Your Mama Chords & Tabs

Scissor Sisters Chords & Tabs

Version: 3 Type: Tab 0 ratings
1 star 2 stars 3 stars 4 stars 5 stars
comments

Take Your Mama Tab

-------------------------------------------------------------------------------
			     Take Your Mama - Scissor Sisters
-------------------------------------------------------------------------------
Tabbed by: Dave Allman
Email: daverallman@gmail.com dave_allman3@hotmail.com

Tuning: Standard

««INTRO»»


e|--6--6--6-------4--4--4-------3--3--3--------------------------------------|
B|--6--6--6-------4--4--4-------4--4--4h5p4----------------------------------|
G|--7--7--7h8p7---5--5--5h6p5---5--5--5p3------------------------------------|
D|--8--8--8p6-----6--6--6p4-----5--5--5--------------------------------------|
A|--8--8--8-------6--6--6-------3--3--3--------------------------------------|
E|--6--6--6-------4--4--4----------------------------------------------------|

	It's not hard to work out the rhythm from the song


««VERSE»»


The intro, with piano etc.


««BRIDGE»»


e|-------------3----------------------------------------------------6--------|
B|-------------4----------------------------------------------------6--------|
G|-------------5-----------STRUM------------------------------------7--------|
D|-------------5----------------------------------------------------8--------|
A|-------------3----------------------------------------------------8--------|
E|------------------------------------------------------------------6--------|

  But now your girl's gone a missing and you house has got an empty bed......


««PRE-CHORUS»»


e|------6---------------------------------------4----------------------------|
B|------6---------------------------------------4----------------------------|
G|------7------------------STRUM----------------5----------------------------|
D|------8---------------------------------------6----------------------------|
A|------8---------------------------------------6----------------------------|
E|------6---------------------------------------4----------------------------|


  Gonna take your mama out all night yeah we'll show her what it's all about

e|--------6-----------------------------------------6------------------------|
B|--------8-----------------------------------------6------------------------|
G|--------8-----------------------------------------7------------------------|
D|--------8-----------------------------------------8------------------------|
A|--------6-----------------------------------------8------------------------|
E|--------6-----------------------------------------6------------------------|

  Get her jacked up on some cheap champagne let the good times all roll out...


««CHORUS»»

[ Tab from: http://www.guitartabs.cc/tabs/s/scissor_sisters/take_your_mama_tab_ver_3.html ]
e|-4-4-5-6--------------------4----------------------------------------------|
B|-4-4-5-6--------------------4----------------------------------------------|
G|-5-5-6-7------STRUM---------5----------------------------------------------|
D|-6-6-7-8--------------------6----------------------------------------------|
A|-6-6-7-8--------------------6----------------------------------------------|
E|-4-4-5-6--------------------4----------------------------------------------|

	 Do it take your mama out all night

e|----------6---------------------------------------------6----6-6--4-4-5-6--|
B|----------8---------------------------------------------6----6-6--4-4-5-6--|
G|----------8---------------------------------------------7----7-7--5-5-6-7--|
D|----------8---------------------------------------------8----8-8--6-6-7-8--|
A|----------6---------------------------------------------8----8-8--6-6-7-8--|
E|----------6---------------------------------------------6----6-6--4-4-5-6--|

  so she'll have no doubt that we're doing oh the best we can...


««SOLO»»

Not 100%, but sounds close enough

e|-11p9-11---------9----------------------10---------------------------------|
B|---------11-9-11---11-9-9------8-9-11-11------11-11-9-----11---------------|
G|----------------------------10-----------------------10-8---8--------------|
D|-------------------------------------------------------------11-8----------|
A|---------------------------------------------------------------------------|
E|---------------------------------------------------------------------------|

e|-----------------------------10--------------------------------------------|
B|-------------------9----9-11----------8-9p8--------------------------------|
G|-0-------8----8-10---10------------10-------10----8b10r8-------------------|
D|----8-11---11----------------------------------11--------11-8--------------|
A|---------------------------------------------------------------------------|
E|---------------------------------------------------------------------------|

e|-----------8-10bp8----11-111111-9p8----------11-9p8------------------------|
B|----8-9-11---------11---------------11-99898--------11-11------------------|
G|-10------------------------------------------------------------------------|
D|---------------------------------------------------------------------------|
A|---------------------------------------------------------------------------|
E|---------------------------------------------------------------------------|


That'll be all. It's easy enough to pick it up from listening to it, it's quite a simple song really

Dave (daverallman@gmail.com, dave_allman3@hotmail.com)
Comments