Scissor Sisters - Take Your Mama Out Chords & Tabs

 

Take Your Mama Out Chords & Tabs

Scissor Sisters Chords & Tabs

Version: 1 Type: Tab 6 ratings
1 star 2 stars 3 stars 4 stars 5 stars
comments

Take Your Mama Out Tab

   
This is all correct. I know, I know, no need to thank me.

A# 	= -6-8-8-7-6-6-
A#7sus4 = -6-8-6-8-6-6-
G# 	= -4-6-6-5-4-4-
G#7sus4 = -4-6-4-6-4-4-
Cm 	= -X-3-5-5-4-3-
Cadd9 	= -X-3-5-5-3-3-
AΓΈ 	= -5-6-7-5-5-5-
F 	= -1-3-3-2-1-1-
D# 	= -X-6-8-8-8-6-

Chorus-riff goes:
|--------------------------------------------------------------------------|
|--b9(10)r9-6------------------------------------------------------------|
|-------------8-6---------------------------------------------------------|
|-----------------v8---8-6-v8--------------------------------------------|
|--------------------------------------------------------------------------|
|--------------------------------------------------------------------------|

{Intro: A#   A#7sus4 A# | G#   G#7sus4 G# | Cm   Cadd9 Cm |
A#   A#7sus4 A# | x2}

           

Solo goes:
|------------------------------------------------------------------------|
|-b13(14)r13b(14)r13---11----11-14-11------------------------------------|
|-------------------------13----------13-v13-----------------------------|
|------------------------------------------------------------------------|
|------------------------------------------------------------------------|
|------------------------------------------------------------------------|
[ Tab from: http://www.guitartabs.cc/tabs/s/scissor_sisters/take_your_mama_out_tab.html ]
|------------------------------------------------------------------------|
|------------11-11-b13-14---11-------------------------------------------|
|-10-12-13---------------------13p12-10----10s8--------------------------|
|---------------------------------------13------11-v8--------------------|
|------------------------------------------------------------------------|
|------------------------------------------------------------------------|

|------------------------------------------------------------------------|
|------------------------------b13-rh14----------------------------------|
|----10-12-13-12-13-s15--13-15------------10-12-13p12-10-----------------|
|--------------------------------------------------------b10(11)r10-8-v8-|
|-10s11------------------------------------------------------------------|
|------------------------------------------------------------------------|

|-------------------------------11---------------------------------------|
|----------11-13-b13r-13-11-b14----b14(16)r-13p11-------14p13-11---------|
|-10-12-13----------------------------------------13p12------------------|
|------------------------------------------------------------------------|
|------------------------------------------------------------------------|
|------------------------------------------------------------------------|

|-11---------------------------------------------------------------------|
|----14p11---------11----------------------------------------------------|
|----------b13(14)----b13(15)--------------------------------------------|
|------------------------------------------------------------------------|
|------------------------------------------------------------------------| 

Enjoy! I know I have! Gem
Comments