Scissor Sisters - Filthy Gorgeous Chords & Tabs

 

Filthy Gorgeous Chords & Tabs

Scissor Sisters Chords & Tabs

Version: 2 Type: Bass Tab 0 ratings
1 star 2 stars 3 stars 4 stars 5 stars
comments

Filthy Gorgeous Bass Tab

This is such a funky song, but it requires a large handspan!
There are only three sections to the song, which repeat a couple of times. 
Unfortunately, I have only been able to tab out two of the sections, as the #you gotta
wrap your fuzzy...# bit still eludes me! Please feel free to email me with it!
[ Tab from: http://www.guitartabs.cc/tabs/s/scissor_sisters/filthy_gorgeous_btab_ver_2.html ]
Main section
G:------5-----2-----3-------4----|
D:-------------------------------|
A:---3-----0-----1------2--------|
E:-------------------------------|

Third section (#you're disgusting...#)
G:----------------------|
D:----------------------|
A:--3----1--------------|
E:------------4----1----|

Have fun!
Daiz x
Comments