School Of Rock - School Of Rock Chords & Tabs

 

School Of Rock Chords & Tabs

School Of Rock Chords & Tabs

Version: 4 Type: Tab 0 ratings
1 star 2 stars 3 stars 4 stars 5 stars
comments

School Of Rock Tab

Tabber: Geetar 
        (Nelson Cheng 
         msn only: ber8x@hotmail.com
         emails: berzerker8x@rogers.com)
Band: School Of Rock
Song: School Of Rock

 This is a song as you probably already is from the movie
School of Rock. I decided to tab the solo since it appears
that it has not been done yet. This is my first tab so bare
with me. Timing you will probably have figure out, although
I tried my best to space things generally where I felt fit.
I might later on tab out the 2nd solo done by his student.

 Feel free to stick this solo into your own tab of this song.
Just make sure I get credit and you drop me a line so I can
rock with your tab.
 
Enjoy!

Solo 1: 
Guitar 1 (Jack Black)
Standard tuning - EBGDAE

                 tap   hold bend and pick           release bend
e----------------------------------------------------------------
b-------10--------------------:::::::::::::::::::::::::::--------
g-9b11===11b9p7~~(7)~~-7h9b10-:10d10u--10d10u--10d10u10d:-10b9p7-
d----------------------------------------------------------------
a----------------------------------------------------------------
e----------------------------------------------------------------

*the = signifies the hold length
[ Tab from: http://www.guitartabs.cc/tabs/s/school_of_rock/school_of_rock_tab_ver_4.html ]
e------------------------------------------------------------
b------------------10-b-12p10-(10)~~~~-12-15-17p15p12-15-15~-
g-7---9p7~~-(7)~~---------------~----------------------------
d---9--------------------------------------------------------
a------------------------------------------------------------
e------------------------------------------------------------

         slow release              *note1*      
e-----------------------------------------------------------------
b-17b19-17b19--r--17p15p12-15-15~~-10-12-10--12p10-12p10-15-12p10-
g-------------------------------------12--------------------------
d-----------------------------------------------------------------
a-----------------------------------------------------------------
e-----------------------------------------------------------------

note 1*Alternate a pedal could be used here, maybe? I dunno, maybe

e-----------------------------------------------------------------
b-10~---15-17b19-19b17r15-15--------------------------------------
g----------------------------19-21-19~~\--------------------------
d-----------------------------------------------------------------
a-----------------------------------------------------------------
e-----------------------------------------------------------------
Comments