School Of Rock - School Of Rock Chords & Tabs

 

School Of Rock Chords & Tabs

School Of Rock Chords & Tabs

Version: 1 Type: Bass Tab 0 ratings
1 star 2 stars 3 stars 4 stars 5 stars
comments

School Of Rock Bass Tab

Listen to the song to figure out exact timing

~ Ring out

G|--------------------------
D|--------------------------
A|--------------------------
D|-0~-0~-0-0-0-0----0-0-0---

G|-------------
D|-------------
A|----3--2--3-- X5
D|-0-----------

G|-----------
D|-----------
A|----3------
D|-0-----5---

If you wanna be...
G|--------------------------
D|--------------------------
A|--------------------------
D|-0~-2~-5~-0~-0~-2~-5~-----
[ Tab from: http://www.guitartabs.cc/tabs/s/school_of_rock/school_of_rock_btab.html ]
(Solo)
G|-------------
D|-------------
A|----3--2--3-- X2
D|-0-----------

G|-------------
D|-------------
A|----3--2--3-- X3
D|-0-----------

G|-----------
D|-----------
A|----3------
D|-0-----5---

*guitar only*

G|----------------------------------
D|----------------------------------
A|----------------------------------
D|-0-0-0-0--0-0-0-0--0-0-0--0-0-0-0-

G|-------------
D|-------------
A|----3--2--3-- X5
D|-0-----------

G|-----------
D|-----------
A|----3------
D|-0-----5---

G|---------------------
D|---------------------
A|--------3-3--2~------
D|-0-0-0----------5\---
Comments