Schleprock - Suburbia Chords & Tabs

 

Suburbia Chords & Tabs

Schleprock Chords & Tabs

Version: 1 Type: Bass Tab 0 ratings
1 star 2 stars 3 stars 4 stars 5 stars
comments

Suburbia Bass Tab

Suburbia 
Schleprock
[ Tab from: http://www.guitartabs.cc/tabs/s/schleprock/suburbia_btab.html ]
Main thing
G|-----------------------------------|
D|----------4-4---------5-5-4-4------|
A|------5-5-----5-5-7-7---------5-5--|
E|--7-7------------------------------|
Chorus
G|-------------*-----------|
D|-------------*-----------|
A|-5>----------*--7>-5>----|
E|----5>-3>-3>-*---------7-|

Written by Tom Kenny


Comments