Schism - Hey Dude Chords & Tabs

 

Hey Dude Chords & Tabs

Schism Chords & Tabs

Version: 1 Type: Tab 0 ratings
1 star 2 stars 3 stars 4 stars 5 stars
comments

Hey Dude Tab

   
Title: Schism - Hey Dude I Fucked your mom last night
Tabbed By Ash
E mail: caterpillar700@hotmail.com (No arseholes please)

I've only done rythm guitar but there aint much lead in this song anyway
I tabbed it off the album 'Don't Try This At Home' (classic album!)


Intro part 1/Verse 1

E---------------------
B---------------------
G--22222222-77777777—-  X4
D--22222222-77777777--
A--00000000-55555555--
E---------------------
. . . . .PM. . . . . .  


Intro part 2/Verse 1

E---------------------------
B---------------------------
G—-----22222222—-7-6-7-6-7--
D------22222222—-7-6-7-6-7—- X2
A------00000000—-5-4-5-4-5--
E---------------------------

Chorus part 1

E----------------------
B----------------------
G-22222222—-7-6-7-6-7--
D-22222222—-7-6-7-6-7--  X2
A-00000000—-5-4-5-4-5--
E----------------------

Chorus Part 2

E----------------
B----------------
G-2-4-7—-6-7-6-7-
D-2-4-7—-6-7-6-7-   X3
A-0-2-5-—4-5-4-5-
E----------------


Verse 2
[ Tab from: http://www.guitartabs.cc/tabs/s/schism/hey_dude_tab.html ]
E------------------------------------------------------------
B------------------------------------------------------------
G-2-4-6--2-4-7--2-4-6--2-4-7--2-4-6--2-4-7--2-4-6-—7-7777777-
D--------------------------------------------------7-7777777-   X1
A--------------------------------------------------5-5555555-
E------------------------------------------------------------
	 

Solo

E---------------------------------------
B-2~-2-3-5-2—-7-5-3-—2-2-3-5-—7-5-3—10~-
G---------------------------------------
D---------------------------------------
A---------------------------------------
E--------------------------------------- 

End

E-----------------------------
B-----------------------------
G-2~--------------------------
D-2~--------------------------
A-0~--------------------------
E-----------------------------

Here’s The Order

Intro part 1 X4
Intro part 2 X2
Verse 1 X8
Chorus part 1 X2
Chorus part 2 X3
Intro part 2 X2
Verse 2 X1
Chorus part 1 X2
Chorus part 2 X3
Solo X1
Intro part 1 X4
Chorus part 1 X2
Chorus part 2 X3
Chorus part 1 X8
End X1

This is about 90% accurate
Comments