Schism - Hey Dude Chords & Tabs

 

Hey Dude Chords & Tabs

Schism Chords & Tabs

Version: 1 Type: Bass Tab 0 ratings
1 star 2 stars 3 stars 4 stars 5 stars
comments

Hey Dude Bass Tab

I know my tab for the guitar part wasn't too hot but this sounds quite good.
I dunno the order properly yet but its all right!

Intro

G----------------------|
D----------------------|
A----------5-4545------|
E-55555555-------------|

Verse/Solo

G-------------------------------------|
D-------------------------------------|
A----------55555555--------5-4545-----|
E--55555555--------55555555-----------|

Chorus
[ Tab from: http://www.guitartabs.cc/tabs/s/schism/hey_dude_btab.html ]
G------------------------------------|
D------------------------------------|
A---------5-4545---------5-4-5-------|
E-55555555-------55555555------------|

Verse 2

G-----------------------------------------------------------------|
D-----------------------------------------------------------------|
A---------55555555--------55555555------------55555555----------5-|
E-55555555--------55555555-----------77777777----------77777777---|

Outro

G-------------------|
D-------------------|
A-2-4-5-4545--------| Repeat
E-------------------|
Comments