Schism - All Messed Up Chords & Tabs

 

All Messed Up Chords & Tabs

Schism Chords & Tabs

Version: 1 Type: Tab 0 ratings
1 star 2 stars 3 stars 4 stars 5 stars
comments

All Messed Up Tab

   
Song: All Messed Up
Album: Don't Try This At Home
Artist: SCHISM

Has no-one ever heard of SCHISM? I heard them and thought...."wow!" This is a
really simple but effective song, it sounds it great. Any way its the first song
on the album (which i would highly recommend) to anyone!

Intro (guitar1)
e-------------------------------------------------------------------------
b-------------------------------------------------------------------------
g-------------------------------------------------------------------------
D-9-10-10-10--2-3-3--9-10-10-10--2-3-3--9-10-10-10--2-3-3--5-7-7-7--2-3-3-
A-9-10-10-10--2-3-3--9-10-10-10--2-3-3--9-10-10-10--2-3-3--5-7-7-7--2-3-3-
D-7--8--8--8--0-1-1--7--8--8--8--0-1-1--7--8--8--8--0-1-1--3-5-5-5--0-1-1-

(guitar1+2)
e-------------------------------------------------------------------------
b-------------------------------------------------------------------------
g-------------------------------------------------------------------------
D-9-10-10-10--2-3-3--9-10-10-10--2-3-3--9-10-10-10--2-3-3--5-7-7-7--2-3-3-
A-9-10-10-10--2-3-3--9-10-10-10--2-3-3--9-10-10-10--2-3-3--5-7-7-7--2-3-3-
D-7--8--8--8--0-1-1--7--8--8--8--0-1-1--7--8--8--8--0-1-1--3-5-5-5--0-1-1-

Verse(guitar1)
e-------------------------------------------------------------------------
b-------------------------------------------------------------------------
g-------------------------------------------------------------------------
D-9-10-10-10--2-3-3--9-10-10-10--2-3-3--9-10-10-10--2-3-3--5-7-7-7--2-3-3-
A-9-10-10-10--2-3-3--9-10-10-10--2-3-3--9-10-10-10--2-3-3--5-7-7-7--2-3-3-
D-7--8--8--8--0-1-1--7--8--8--8--0-1-1--7--8--8--8--0-1-1--3-5-5-5--0-1-1-


Pre-Chorus(guitar2)
LET EACH POWER CHORD RING UNTIL THE NEXT ONE
e------------------------
b------------------------
g------------------------
D-10---12---14---15---17-
A-10---12---14---15---17-
E--8---10---12---13---15-
[ Tab from: http://www.guitartabs.cc/tabs/s/schism/all_messed_up_tab.html ]
Chorus(guitar 1+2)
e-------------------------------------------------------------------------
b-------------------------------------------------------------------------
g-------------------------------------------------------------------------
D-10-10-10-10-10-10-10-10-5-5-5-5-5-5-5-5-7-7-7-7-7-7-7-7-3-3-3-3-3-3-3-3-
A-10-10-10-10-10-10-10-10-5-5-5-5-5-5-5-5-7-7-7-7-7-7-7-7-3-3-3-3-3-3-3-3-
E--8--8--8--8--8--8--8--8-3-3-3-3-3-3-3-3-5-5-5-5-5-5-5-5-1-1-1-1-1-1-1-1-

Post-Chorus(guitar1)
e-------------------------------------------------------------------------
b-------------------------------------------------------------------------
g-------------------------------------------------------------------------
D-9-10-10-10--2-3-3--9-10-10-10--2-3-3--9-10-10-10--2-3-3--5-7-7-7--2-3-3-
A-9-10-10-10--2-3-3--9-10-10-10--2-3-3--9-10-10-10--2-3-3--5-7-7-7--2-3-3-
E-7--8--8--8--0-1-1--7--8--8--8--0-1-1--7--8--8--8--0-1-1--3-5-5-5--0-1-1-


Order Of Play

1ntro
Verse x2
Pre-Chorus
Chorus x2
Post Chorus	
Verse x2
Pre-Chorus		
Chorus x2
Post Chorus x2
Post Chorus x1 (Both Guitars)
Pre-Chorus x2
Chorus x3
Post Chorus x2


Lyrics: 

I hate myself, for loving you
you fuck me up with the things that you do
the tragedy, it never ends
i turn my back and you fuck all my friends.

the more i learn, the less i know
so should i stay, or do you want me to gooo?

im all messed up, in over my head
i cant think straight, im out on the edge
im all messed up, im out of my head
im dazed and confused, and better off dead
im all messed up, youve got me all messed up

i wonder why, i stick around
you build me up then you knock me back down
i really think, youve gone to far
you took my keys and you smashed up my car

the more i give, the more you take
the more i bend, the more you want me to break!

im all messed up, in over my head
i cant think straight, im out on the edge
im all messed up, im out of my head
im dazed and confused, and better off dead
im all messed up, youve got me all messed up
youve got me all messed up, youve got me all messed up
YOUVE GOT ME ALL MESSED UP!

you say i do, and then you dont
you say i will and then you wont
it makes you laugh, to see me cry
i say "hello" but then you wave goodbye

im all messed up, in over my head
i cant think straight, im out on the edge
im all messed up, im out of my head
im dazed and confused, and better off dead
im all messed up, in over my head
i cant think straight, im out on the edge
im all messed up, (youve got me all messed up)
youve got me all messed up, (youve got me all messed up)
youve got me all messed up, (youve got me all messed up)
youve got me all messed up, (youve got me all messed up)
youve got me all messed up!
Comments