Schandmaul - Geisterschiff Chords & Tabs

 

Geisterschiff Chords & Tabs

Schandmaul Chords & Tabs

Version: 1 Type: Tab

Geisterschiff Tab

   
Hey! Check out my Version of Schandmaul - Geisterschiff! It isn't correct in every
part so you had to modify it sometimes. It sounds very good if you play it like this
also but I'd like to give you an Idea of the song how it is played by Schandmaul.
So don't worry about some mistakes. I tried my best.
And don't give up when you see this very long Intro! It's almost the same.
So enjoy it playing or listening and have fun with this tab ^^

THIS TAB WAS TABBED BY FIESEMOEB!

Intro: 

Time: 1 + 2 + 3 + 4 + | 1 + 2 + 3 + 4 + | 1 + 2 + 3 + 4 + | 1 + 2 + 3 + 4 + |
   E|-----------------|-----------------|-----------------|-----------------|
   B|-------3---------|-------3---------|-------2---------|-------2---------|
   G|-----0-----0---0-|-----0-----0---0-|-----0-----0---0-|-----0-----0---0-|
   D|---2---------2---|---2---------2---|---2---------2---|---2---------2---|
   A|-2---------------|-2---------------|-2---------------|-2---------------|
   E|-----------------|-----------------|-----------------|-----------------|

Time: 1 + 2 + 3 + 4 + | 1 + 2 + 3 + 4 + | 1 + 2 + 3 + 4 + | 1 + 2 + 3 + 4 + |
   E|-------0---------|-------3---------|-------3---------|-------2h3p2-----|
   B|-----------------|-----------------|-----------------|-----3-----------|
   G|-----0-----0---0-|-----0-----0---0-|-----------------|---2-------------|
   D|---2---------2---|---2---------2---|-----0-----0---0-|-0---------------|
   A|-3---------------|-3---------------|---2---------2---|-----------------|
   E|-----------------|-----------------|-3---------------|-----------------|

Time: 1 + 2 + 3 + 4 + | 1 + 2 + 3 + 4 + | 1 + 2 + 3 + 4 + | 1 + 2 + 3 + 4 + |
   E|-----------------|-----------------|-----------------|-----------------|
   B|-------3---------|-------3---------|-------2---------|-------2---------|
   G|-----0-----0---0-|-----0-----0---0-|-----0-----0---0-|-----0-----0---0-|
   D|---2---------2---|---2---------2---|---2---------2---|---2---------2---|
   A|-2---------------|-2---------------|-2---------------|-2---------------|
   E|-----------------|-----------------|-----------------|-----------------|
[ Tab from: http://www.guitartabs.cc/tabs/s/schandmaul/geisterschiff_tab.html ]
Time: 1 + 2 + 3 + 4 + | 1 + 2 + 3 + 4 + | 1 + 2 + 3 + 4 + | 1 + 2 + 3 + 4 + |
   E|-------0---------|-------3---------|-------3---------|-------2h3p2-----|
   B|-----------------|-----------------|-----------------|-----3-----3---3-|
   G|-----0-----0---0-|-----0-----0---0-|-----------------|---2---------2---|
   D|---2---------2---|---2---------2---|-----0-----0---0-|-0---------------|
   A|-3---------------|-3---------------|---2---------2---|-----------------|
   E|-----------------|-----------------|-3---------------|-----------------|
                                                             
                         !!!Here you must hear it for the timing!!!

 
Thats it! puh... we finished the intro!

The Verse is really easy:

Time: 1 + 2 + 3 + 4 + | 1 + 2 + 3 + 4 + | 1 + 2 + 3 + 4 + | 1 + 2 + 3 + 4 + |
   E|-----------------|-----------------|-------0---------|-----3-------3---|
   B|-------3---------|-------2---------|---------1-------|-----0-------2---|
   G|-----0-----0---0-|-----0-----0---0-|-----0-----0---0-|-----------3---3-|
   D|---2---------2---|---2---------2---|---2---------2---|-------0-0-------|
   A|-2---------------|-2---------------|-3---------------|---2-------------|
   E|-----------------|-----------------|-----------------|-3---------------|

when you played this 4 times you hear something like that:

Time: 1 + 2 + 3 + 4 + |
   E|-----0-------0---|
   B|-----0-------1---|
   G|-----0-------2---| but you can play it just like an Em and an Am it
   D|---2---2---2---2-| sounds pretty good.
   A|-2-------0-------|
   E|-----------------|


PreChorus:

Now I can't really tab this out. I hadn't enough time ^^ but it seems like this:

Em              G               Em         Am 
In stürmischen Nächten und bei rauher See
Em                    G         Em Am
wurde es schon oft gesichtet
Em                 G             Em                 Am
Ein schemenhafter Umriss mehr ein Schatten denn Gestalt
Em                 G           Em             Am
läuft querab zur Küste zu dem Riff und macht Halt


after this comes the Chorus. I don't know how they play this I play this song like a rock
version so I use many chords in it and I like to play it so. maybe you too. so here comes
my version:

Chorus:

Em        G            D                   B5       C5     Em
Dann ein Feuer in der Nacht, das Schiff in Flammen, lichterloh
Em        G            D         B5      C5     Em    Am
Seht, es ist erneut erwacht ein Warnmal eine Warnung wohl..
Em           G                D            B5       C5 Em
Es leuchtet hell es leuchtet weit, es ist nicht zu übersehn
Em         G         D         B5         C5      Em     Am
Und kein andrer Kapitän sah seither sein Boot zu Grunde gehn...


So thats it! now you have to play it in this order:

Intro 4x
Verse 4x
PreChorus 1x
Chorus 1x
Intro 2x
Verse 2x
PreChorus 1x
Chorus 1x
Intro 2x
Verse 1x

I think it's just like that.