Scene Creamers - Better All The Time Chords & Tabs

 

Better All The Time Chords & Tabs

Scene Creamers Chords & Tabs

Version: 1 Type: Tab 0 ratings
1 star 2 stars 3 stars 4 stars 5 stars
comments

Better All The Time Tab

-------------------------------------------------------------------------------
                     better all the time- scene creamers
-------------------------------------------------------------------------------
Tabbed by: chris
Email: voodoochild1787@yahoo.com

this is a indy rock band and not many people have heard of them obviously because im
the first person to tab any of their songs... you can find some information on them
here.. http://www.dragcity.com/bands/scenecreamers.html

O.K. play with wah throughout the song.

 main riff:
e|-----------------------------------------------------------|
B|-----------------------------------------------------------|
G|-7/9--7------------------------------7---------------------|  x2
D|---------9--7--5-----------5--7-7/9------------------------|
A|------------------7--5--7----------------------------------|
E|-----------------------------------------------------------|

e|-----------------------------------------------------------|
B|-----------------------------------------------------------|
G|-7/9--7------------------------------7---------------------|
D|---------9--7--5-----------5--7-7/9------------------------|
A|------------------7--5--7----------------------------------|
E|-----------------------------------------------------------|
         when i first met you i didnt like you too much uh huh


e|-----------------------------------------------------------|
B|-----------------------------------------------------------|
G|-7/9--7------------------------------7---------------------|
D|---------9--7--5-----------5--7-7/9------------------------|
A|------------------7--5--7----------------------------------|
E|-----------------------------------------------------------|
              yea you had the charm of a greyhound bus


e|-----------------------------------------------------------|
B|-----------------------------------------------------------|
G|-7/9--7------------------------------7---------------------|
D|---------9--7--5-----------5--7-7/9------------------------|
A|------------------7--5--7----------------------------------|
E|-----------------------------------------------------------|
               but now your scraping change out of my ?


e|-----------------------------------------------------------|
B|-----------------------------------------------------------|
G|-7/9--7------------------------------7---------------------|
D|---------9--7--5-----------5--7-7/9------------------------|
A|------------------7--5--7----------------------------------|
E|-----------------------------------------------------------|
              yeah im seeing you like i didnt before


e|-----------------------------------------------------------|
B|-----------------------------------------------------------|
G|-7/9--7------------------------------7---9b--7--9b--7------|
D|---------9--7--5-----------5--7-7/9------------------------|
A|------------------7--5--7----------------------------------|
E|-----------------------------------------------------------|
               yea your looking better all the time

[ Tab from: http://www.guitartabs.cc/tabs/s/scene_creamers/better_all_the_time_tab.html ]
e|-----------------------------------------------------------|
B|-----------------------------------------------------------|
G|------------------------------------7----------------------|
D|---------9--7--5-----------5--7-7/9------------------------|
A|------------------7--5--7----------------------------------|
E|-----------------------------------------------------------|
         now your looking better all of the time yea yea ye yea

e|--------------------------------------|
B|---9--11--9---------------------------|
G|-------------9--11--9-9/13b-----------|
D|--------------------------------------|
A|--------------------------------------|
E|--------------------------------------|

:repeat main riff through 2nd verse:

:then play this at end of second verse:
e|----------------------------------|
B|----------------------------------|
G|-7/11b11b11b11b9b7b97b------------|
D|----------------------------------|
A|----------------------------------|
E|----------------------------------|

e|----------------------------------------------------------------------------|
B|-12-12--10--12--10--12--10--------------------------------------------------|
G|-12-12--10--12--10--12--10-10-------12-12----12-14/17-15----------17--------|
D|------------------------10-10/12h14-------14-------------17-17/19----19-17--|
A|----------------------------------------------------------------------------|
E|----------------------------------------------------------------------------|
   yeah you walked through the door, you hit your ass on the floor

e|----------------------------------------------------|
B|-12-12--10--12--10--12--10--------------------------|
G|-12-12--10--12--10--12--10-10-------12-12-1212-12---|
D|------------------------10-10/12h14-14----1414-14---|
A|----------------------------------------------------|
E|----------------------------------------------------|
    thats when i realized that i had to be ???


chorus:
e|----------------------------------------------------|
B|----------------------------------------------------|
G|----------------------------------------------------|
D|-------3--5/7--5-----------------3--5/7--5----------|
A|-3--5------------7-5-3-----3--5-------------7-5-3---|
E|------------------------5-------------------------5-|
your looking better all the time now, now your looking better all the time yeah yeah yea yeah

:repeat main riff through 3rd verse:


Solo:

e|--------------------------------------------------------------------------|
B|-12/14-14-12b-----14b-14b-12-14b-14b-12-12--------------------------------|
G|-12/14-14-12b(12)--------------------------14-14-12-12-10-10-9-9-7-7-5-5--|
D|--------------------------------------------------------------------------|
A|--------------------------------------------------------------------------|
E|--------------------------------------------------------------------------|

e|----------------------------------------------------------------------------|
B|-----------5/14-12b------14b-14b-12-14b-14-12-12----------------------------|
G|-3h5p3h5p3-5/14-12b(12b)-------------------------14-14-12-12-10-10-9-9-7-7--|
D|-----------5/---------------------------------------------------------------|
A|----------------------------------------------------------------------------|
E|----------------------------------------------------------------------------|

e|---------------------------------------------------------|
B|---------------------------------------------------------|
G|-5-5-3h5p3h5p3-------------------------------------------|
D|---------------5-----------------------------------------|
A|---------------------------------------------------------|
E|---------------------------------------------------------|

the next part of the solo is recorded over the other part and i didnt feel like tabbing 
good song though... right?
Comments