Scars Of Life - Silent Words Chords & Tabs

 

Silent Words Chords & Tabs

Scars Of Life Chords & Tabs

Version: 1 Type: Tab 0 ratings
1 star 2 stars 3 stars 4 stars 5 stars
comments

Silent Words Tab

   
Tuning: Standard (D G C F A D)

This is my first tab and I've noticed there arent any tabs for scars of life 


D|---------------------------------------------------------------------------||
A|----------oh1p0-----0-------3------1------0---------0h1p0------------------||
F|--------2-------------2-------2------2------------0------------------------||
C|------2-----------------2-------2------2--------2--------------------------||
G|----0-----------------------------------------3----------------------------||
D|--0------------------------------------------------------------------------||

[ Tab from: http://www.guitartabs.cc/tabs/s/scars_of_life/silent_words_tab.html ]
D|---------------------------------------------------------------------------||
A|---0----------------0h1p0--------------------------------------------------||
F|-----0------------0--------------------------------------------------------||
C|-------2--------2----------------------------------------------------------||
G|---------3----3------------3-3-2-0-----------------------------------------||
D|---------------------------------------------------------------------------||
*This is reapeated throughout the verse*

D|--------0---0-0----0-0-0-0-0-0----0---0-0----0---3-3-3-3-3-3-0-0-----------||
A|--------0---0-0----0-0-0-0-0-0----3---3-3----0---0-0-0-0-0-0-0-0-----------||
F|--------2---2-2----0-0-0-0-0-0----2---2-2----0---0-0-0-0-0-0-0-0-----------||
C|--------2---2-2----2-2-2-2-2-2----0---0-0----2---2-2-2-2-2-2-2-2-----------||
G|--------0---0-0----2-2-2-2-2-2----0---0-0----2---2-2-2-2-2-2-2-2-----------||
D|---------------------------------------------------------------------------||
*Repeat this throughout the chorus
Comments