Scars Of Life - Shallow Chords & Tabs

 

Shallow Chords & Tabs

Scars Of Life Chords & Tabs

Version: 1 Type: Tab 0 ratings
1 star 2 stars 3 stars 4 stars 5 stars
comments

Shallow Tab

   
Tuning: Drop C (C,G,C,F,A,D)

Intro (clean) - *Listen to song for strumming pattern*
----------------|-------------|-------------|
----------------|-------------|-------------|
--7--9-10-12-10-|-----5---5---|-----2---2---|
--7--9-10-12-10-|---5---5---5-|---2---2---2-|
--5--7-8--10-8--|-3-----------|-0-----------|
----------------|-------------|-------------|
            (..you've thrown away..)

Chorus (dist.)
-------------------|--------------------|
-------------------|--------------------|
-------------------|--------------------|
-x-8-x-8h10p-0~-5~-|-x-8-x-8h10p-0~-3~--|
-x-8-x-8h10p-0~-5~-|-x-8-x-8h10p-0~-3~--|
-x-8-x-8h10p-0~-5~-|-x-8-x-8h10p-0~-3~--|
              (..and I swallow..)

Verse (dist)
------------------|
------------------|
------------------|
------------------|
-5-7-8-10-8--5-7--|
------------------|
   (..all these years..)

(repeat chorus)
[ Tab from: http://www.guitartabs.cc/tabs/s/scars_of_life/shallow_tab.html ]
bridge (dist)
--------|-----------------------|---------------------|------------------|
--------|-----------------------|---------------------|------------------|
--------|-----------------------|---------------------|------------------|
--------|xx0x1x1p0x1p0x1h3------|---------------------|xx0x1x1p0x1p0x1h3-|
-6~--3~-|xx0x1x1p0x1p0x1h3-(x2)-|-6~--------8~--------|xx0x1x1p0x1p0x1h3-|
--------|xx0x1x1p0x1p0x1h3------|----(xxxx)----(xxxx)-|xx0x1x1p0x1p0x1h3-|
(..i wish for it)                    (2x only)


bridge II (dist)
-------------|-------------|
---------3---|---------6---|
-----------3-|-----------5-|
-0~--1~------|-0~--3~------|
-0~--1~------|-0~--3~------|
-0~--1~------|-0~--3~------|

Bridge III (clean) *Listen to song for strumming*
-0-|-1-|-0-|-3-|
-3-|-3-|-0-|-6-|
-2-|-3-|-0-|-5-|
-0-|-1-|-0-|-3-|
-0-|-1-|-0-|-3-|
-0-|-1-|-0-|-3-|
(..i wish for it..)

(Repeat Chorus)

Breakdown (dist)
-------------------|
-------------------|
-------------------|
-xx0x1x1p0x1p0x1h3-
-xx0x1x1p0x1p0x1h3-
-xx0x1x1p0x1p0x1h3-
(..SWALLOW!..)

Breakdown II (dist)
------------------|
------------------|
------------------|
-xx0~-1p0x1p0x1h3-|
-xx0~-1p0x1p0x1h3-|
-xx0~-1p0x1p0x1h3-|
Comments