Scars Of Life - Pool Of Fears Chords & Tabs

 

Pool Of Fears Chords & Tabs

Scars Of Life Chords & Tabs

Version: 1 Type: Tab 0 ratings
1 star 2 stars 3 stars 4 stars 5 stars
comments

Pool Of Fears Tab

   
all parts of the song are listed by number because of repititious riffs instead of me
repeting myself so much.


tunning
C G C F A D



h=hamer on
p=pull off
x=palm mute
\=slide low
/slide high

                    1. intro
|--------------------------------------|---------------------------------------|
|--------------------------------------|---------------------------------------|
|----2h3p2p0h2-------------------------|-----2h3p2p0h2-------------------------|
|-------------------10-----10-----10---|---------------------8-----7--5--------|1X 
|--------------------------------------|---------------------------------------|
|-0---------------8------8------8------|-0----------------5-----5--------------|
(play clean with delay effect)


                      2. verse
|------------------------------------------|-------------------------------------|
|------------------------------------------|-------------------------------------|
|------------------------------------------|-------------------------------------|
|-x--x-x----7h8p7p0h7--5h7p0--8--8-8--8-8-8|-7h8p7p0h7--5--5-5--3-3-3------------|2X
|-x--x-x----7h8p7p0h7--5h7p0--8--8-8--8-8-8|-7h8p7p0h7--5--5-5--3-3-3------------|
|-x--x-x----7h8p7p0h7--5h7p0--8--8-8--8-8-8|-7h8p7p0h7--5--5-5--3-3-3------------|
(play with heavy ditortion)


[ Tab from: http://www.guitartabs.cc/tabs/s/scars_of_life/pool_of_fears_tab.html ]
                  1. intro rep.
|-----------------------------------|------------------------------------------|
|-----------------------------------|------------------------------------------|
|----2h3p2p0h2----------------------|----2h3p2p0h2-----------------------------|
|-------------------10-----10-----10|------------------8-------7--5------------|4x
|-----------------------------------|------------------------------------------|
|-0--------------8------8------8----|-0-------------5------5-------------------|
(play clean with delay effect)



         2. verse rep.
|----------------------------------|-------------------------|
|----------------------------------|-------------------------|
|----------------------------------|-------------------------|
|-7h8p7p0h7--5h7p0---8--8-8---8-8-8|-7h8p7p0h7--5--5-5--3-3-3|2X
|-7h8p7p0h7--5h7p0---8--8-8---8-8-8|-7h8p7p0h7--5--5-5--3-3-3|
|-7h8p7p0h7--5h7p0---8--8-8---8-8-8|-7h8p7p0h7--5--5-5--3-3-3|
(play with heavy distortion)

           3. chorus
|----------------------------------------------------------------------------------|
|----------------------------------------------------------------------------------|
|----------------------------------------------------------------------------------|
|-x--x-x---0---0---0-0--0---3---3---3-3-3--3---8---8---8-8-8--8---5---5---5-5-5--5-|2x
|-x--x-x---0---0---0-0--0---3---3---3-3-3--3---8---8---8-8-8--8---5---5---5-5-5--5-|
|-x--x-x---0---0---0-0--0---3---3---3-3-3--3---8---8---8-8-8--8---5---5---5-5-5--5-|
(play with heavy distortion)


 repete 1. intro 4X
(play clean with delay effect)



repete 3. chorus
(play with heavy ditortion)

  4.  strumming
  16X  8X 4X  8X    16X  8X  4X  8X   16X  8X  4X  8X     16X  8X  4X 8X
|----------------------------------------------------------------------------|
|----------------------------------------------------------------------------|
|--9/-14\-12\-7------9/-14\-12\-7------9/-14/-17/-18------9/-14\-12\-7-------|
|----------------------------------------------------------------------------|1X
|--7/-12\-10\-5------7/-12\-10\-5------7/-12/-15/-16------7/-14\-12\-5-------|
|----------------------------------------------------------------------------|
(play with heavy distortion)


repeat 2. verse 2X
(play with heavy distorton)

repeat 3. chorus 2x

repeat 4. strumming in the same pattern 1X
Comments