Scars Of Life - Eyes Pried Open Chords & Tabs

 

Eyes Pried Open Chords & Tabs

Scars Of Life Chords & Tabs

Version: 1 Type: Tab 0 ratings
1 star 2 stars 3 stars 4 stars 5 stars
comments

Eyes Pried Open Tab

Scars of Life  (www.scarsoflife.com)
Eyes Pried Open       
(drop C tuning)


C-----------------------------------------------------
G-----------------------------------------------------
C--0-0-0-0-1-0---0-0-0-1-0---0-0-0-0-1-0---0-0-0-1-0--
[ Tab from: http://www.guitartabs.cc/tabs/s/scars_of_life/eyes_pried_open_tab.html ]
C-----------------------------------------------------
G--0-0-0-0-1p0-0-0-0-1p0-1-1-1-1-1-3p1-1-1-1-3p1-3----
C--0-0-0-0-1p0-0-0-0-1p0-1-1-1-1-1-3p1-1-1-1-3p1-3----
pm ------|     -----|     -------|    -----|
          
 Verse rhythm                ^=bend up 1/2 step to 6 & pick it
C------------------------------------------------7-7-7-7-7-7-5-5-5-5--
G--5-5-5-5-5-5-5-5-5-5-5-5-5-5-5^5--6-6-6-6-6-6-----------------------
C---------------------------------------------------------------------
pm--------------------------|      ----------------------------------|

2nd guitar part over the verse rhythm
F--14---14\12-12-----12/14-14----10----8-----/(14) (/slide back up to 
C---x----x--x--x------x--x--x-----x----x--------x-  1st chord & repeat)
G--12---12\10-10-----10/12-12-----8----6-----/(12)

Chorus 
C--0--8---5--1--
G--0--8---5--1--
C--0--8---5--1--

2nd guitar over the chorus  ^=bend up & back down then pick 7 again
A--------6/8--8/10          /=pick note then slide up to the next note 
F-7^7-------------
C-----------------

Bridge
F----------8-------8-----------------8-----------------
C----------x-------x-----------------x-----------------
G------5---6---5---6---6h8------5----6----7-8-5-5-7-3--
C--0-0-0-0---0-0-0---0-6h8--0-0-0-0-----0-7-8-5-5-7-3--
pm . .   .   .   .   .      . .   .    . . .   . .
This is correct comes directly from the guitarist
Comments