Scars Of Life - Dead And Gone Chords & Tabs

 

Dead And Gone Chords & Tabs

Scars Of Life Chords & Tabs

Version: 1 Type: Tab 0 ratings
1 star 2 stars 3 stars 4 stars 5 stars
comments

Dead And Gone Tab

   
Drop C (C,G,C,F,A,D)

Intro (dist)
|--------------------|     
|--------------------|     
|-------15-15-15-15--|       
|-------x--x--x--x---| (x3) 
|-------13-13-13-13--|      
|-0--8---------------|  

|--------------------|
|--------------------|      
|-------12-12-12-12--|       
|-------x--x--x--x---| (x1) 
|-------10-10-10-10--|      
|-0--5---------------|    

Verse (Tape-Echo)
|-------11/10--8/10~|
|-------------------|
|-------------------|
|-------------------|
|-------------------|
|-------------------|
Gtr.1 
[ Tab from: http://www.guitartabs.cc/tabs/s/scars_of_life/dead_and_gone_tab.html ]
|------------------|
|------------------|
|-7~--7~--5~-------|
|-x---x---x---5~---|
|-5~--5~--3~--x----|
|-------------5~---|
Gtr.2

Chorus (dist)
|--------------------------|
|--------------------------|
|--------------------------|
|-8888-5555--888-0-7-0-7/0-|
|-8888-5555--888-0-7-0-7/0-|
|-8888-5555--888-0-7-0-7/0-|
PM           ---

verse

chorus

bridge (dist)
|--------------------|--------------------------|
|--------------------|--------------------------|
|--------------------|--------------------------|
|--------------------|----------1-3-1-0-1-3-1-0-|
|--------------------|----------1-3-1-0-1-3-1-0-|
|-1-0-0-00-0-0-0-1/3-|-1-0-0-00-1-3-1-0-1-3-1-0-|
PM                              - - - - - - - - 

intro riff

chorus

bridge riff
Comments