Scabs - Cant Call Me Yours Chords & Tabs

 

Cant Call Me Yours Chords & Tabs

Scabs Chords & Tabs

Version: 1 Type: Tab 0 ratings
1 star 2 stars 3 stars 4 stars 5 stars
comments

Cant Call Me Yours Tab

   
----------------------------------------------------------------------------
		       CAN'T CALL ME YOURS - The Scabs
----------------------------------------------------------------------------
Tabbed by: 911
Email: De.Clercq.Steven@pandora.be

Intro:
G     Em    C    G  (2x)

Verse 1:
G            Em            C            G
I'm tired of fightin', for you rock the boat
G           Em                C            G
I come from miles, and, well, you're at my throat
G           Em     C              G
I heard you say my friends are no good
G            Em         C       G
They say I'm lying, I'm misunderstood

Pre-chorus:
Am                             G            
One more false remark, and I'm out of here
Em                               D Dsus D
'cause I can't stand it anymore
Am                                G
And one more nasty look from your eyes, my dear
Em                      D
And I'm heading for the door

Chorus:
        Am           C                G
You can play with my heart 'till it's sore
        Am        C               G
You can tear it apart, that's for sure
        Am               C             Em              D
You can squeeze 'till it aches, and my poor heart will break
        Am            C        G    Em   C    G
But you can't call me yours anymore

G    Em   C    G

Verse 2:
G    Em       C            G
Explanations, where have I been
G       Em         C          G    
And accusations, I know I'm obscene
G       Em    C          G
Your disguise is wearing thin
G           Em    C                G
The game is over, please shed your skin

Pre-chorus:
Am                             G            
One more false remark, and I'm out of here
Em                               D Dsus D
'cause I can't stand it anymore
Am                                G
And one more nasty look from your eyes, my dear
Em                      D
And I'm heading for the door

Chorus:
        Am           C                G
You can play with my heart 'till it's sore
        Am        C               G
You can tear it apart, that's for sure
        Am               C             Em              D
You can squeeze 'till it aches, and my poor heart will break
        Am            C         D              Dsus            D
But you can't call me yours anymore
[ Tab from: http://www.guitartabs.cc/tabs/s/scabs/cant_call_me_yours_tab.html ]
Solo:
  C                  G             D
    Bend            Bend     Bend
e|----------------|----------------|----------------|----------------|
B|----------------|----------------|----------------|----------------|
G|-7/(9)\7---5----|-(7)/9----(7)/9-|-7--------------|----------------|
D|----------------|----------------|----------------|-7-7-7-7-7-5----|
A|----------------|----------------|----------------|--------------7-|
E|----------------|----------------|----------------|----------------|

  C                  G             D
    Bend            Bend     Bend    \/\/\/... Slow dips (w/whammy bar)
e|----------------|--------------5-|-5--------------|----------------|
B|----------------|----------(7)/9-|-7--------------|----------------|
G|-7/(9)\7---5----|-(7)/9----------|----------------|----------------|
D|----------------|----------------|----------------|----------------|
A|----------------|----------------|----------------|----------------|
E|----------------|----------------|----------------|----------------|

   Am               C                Em               D
                                Let ring.............................
e|----------------|----------------|----------------|----------------|
B|----------------|----------------|----------------|----------------|
G|-(7)H9--9(7)H9-|-7---(7)H9---7--|---------7------|----------------|
D|----------------|----------------|-9-----------9--|-7------------5-|
A|----------------|----------------|----------------|-----------5H7--|
E|----------------|----------------|----------------|----------------|

   Am               C                G
    Bend                             \/\/\/... Slow dips (w/whammy bar)
e|----------------|----------------|----------------|----------------|
B|----------------|----------------|----------------|----------------|
G|---------7------|----------------|----------------|----------------|
D|-7/9------------|-7--------------|-7--------------|----------------|
A|----------------|------------5H7-|----------------|----------------|
E|----------------|----------------|----------------|----------------|

Chorus:
        Am           C                G
You can play with my heart 'till it's sore
        Am        C               G
You can tear it apart, that's for sure
        Am               C             Em              D
You can squeeze 'till it aches, and my poor heart will break
        Am            C         G
But you can't call me yours anymore

              Am             C                G
So now you've played with my heart 'till it's sore
        Am        C               G
You can tear it apart, that's for sure
        Am               C             Em              D
You can squeeze 'till it aches, and my poor heart will break
        Am            C        G    Em   C    G
But you can't call me yours anymore


CHORDS
     EADGBe
G----320033
Em---022000
C----032010
Am---002210
D----000232
Dsus-000233

| /  bend up (full note)
| \  release bend 
| H  hammer-on
| \/\/... slow dips (w/whammy bar)
============================================================================
Comments