Saydie - Lie Chords & Tabs

 

Lie Chords & Tabs

Saydie Chords & Tabs

Version: 2 Type: Tab

Lie Tab

Band : Saydie

Song : Lie

Tuning : Drop D


Mga tol,ito ang unang beses na gagawa ako ng tab d2,kaya i-rate nyo naman...


Intro:


Note:Pwede mo rin pagsabayin tong dalawang pattern na to......

Guitar 1

e----------------|
B----------------|
G----------------|
D---33-----------|
A---33-(break----|
D---33-----------|

Guitar 2
e--------------------------------------|
B------1-1-----------------------------|
G----------2-2------3-3--2-2-0-0-2-2---|
D---------------3-3--------------------|  (4x)
A--------------------------------------|
D--------------------------------------|


Both Guitars(chorus din to)

e---------------------------------------------------|
B---------------------------------------------------|
G-----------------------------11-10-11--------------|
D--333333---555555---777777---x--x--x----77-66-77---| (4x)
A--333333---333333---555555---9--8--9----77-66-77---|
D--333333--------------------------------77-66-77---|


Stanza:

(Ung 1st 2 patterns sa intro,(8x))

I see you.............


Chorus:

C'mon,fuck me to sleep........
[ Tab from: http://www.guitartabs.cc/tabs/s/saydie/lie_tab_ver_2.html ]
e---------------------------------------------------|
B---------------------------------------------------|
G-----------------------------11-10-11--------------|
D--333333---555555---777777---x--x--x----77-66-77---| (4x)
A--333333---333333---555555---9--8--9----77-66-77---|
D--333333--------------------------------77-66-77---|


2nd stanza
Chorus

2nd intro pattern(pagkatapos ng 2nd chorus)

Guitar 1

Pwede rin to pagsabayin sa isang gitara

e-----------------------|
B---1-------------------|
G-----2---3-3-2-2-0-2---| (4x)ung no vox (8x) ung may vox,basta
D-------3---------------|     pakinggan nyo na lang yung kanta.....
A-----------------------|
D-----------------------|

Guitar 2

e---------------|
B---------------|
G---------------|
D---33----------|
A---33(break)---|
D---33----------|


Repeat Chorus (Lie... to me...Lie to me...)


e------------------------------------------------|
B------------------------------------------------|
G------------------------------------------------|
D---33---6---5---33---6---5---33---6---5---3-----|
A---33---6---5---33---6---5---33---6---5---3-----|
D---33---6---5---33---6---5---33---6---5---3-----|

e---------------------|
B---------------------|
G---------------------|
D---------------5-----| (4x) (judge nyo nalang tong isang to,pero alam ko
A---------3--5--------|       tama to)
D---3--5--------------|


Repeat Chorus....
Then patapos na yon..